  0
SECTION
  2
HEADER
  9
$ACADVER
  1
AC1015
  9
$ACADMAINTVER
 70
     6
  9
$DWGCODEPAGE
  3
ANSI_1252
  9
$INSBASE
 10
0.0
 20
0.0
 30
0.0
  9
$EXTMIN
 10
0.0
 20
0.0
 30
0.0
  9
$EXTMAX
 10
594.0
 20
420.0
 30
0.0
  9
$LIMMIN
 10
0.0
 20
0.0
  9
$LIMMAX
 10
594.0
 20
420.0
  9
$ORTHOMODE
 70
     0
  9
$REGENMODE
 70
     1
  9
$FILLMODE
 70
     1
  9
$QTEXTMODE
 70
     0
  9
$MIRRTEXT
 70
     1
  9
$LTSCALE
 40
1.0
  9
$ATTMODE
 70
     1
  9
$TEXTSIZE
 40
3.5
  9
$TRACEWID
 40
1.0
  9
$TEXTSTYLE
  7
Standard
  9
$CLAYER
  8
0
  9
$CELTYPE
  6
ByLayer
  9
$CECOLOR
 62
   256
  9
$CELTSCALE
 40
1.0
  9
$DISPSILH
 70
     0
  9
$DIMSCALE
 40
1.0
  9
$DIMASZ
 40
3.302
  9
$DIMEXO
 40
1.0
  9
$DIMDLI
 40
3.75
  9
$DIMRND
 40
0.0
  9
$DIMDLE
 40
0.0
  9
$DIMEXE
 40
1.0
  9
$DIMTP
 40
0.0
  9
$DIMTM
 40
0.0
  9
$DIMTXT
 40
3.5
  9
$DIMCEN
 40
2.5
  9
$DIMTSZ
 40
0.0
  9
$DIMTOL
 70
     0
  9
$DIMLIM
 70
     0
  9
$DIMTIH
 70
     1
  9
$DIMTOH
 70
     1
  9
$DIMSE1
 70
     0
  9
$DIMSE2
 70
     0
  9
$DIMTAD
 70
     1
  9
$DIMZIN
 70
     1
  9
$DIMBLK
  1

  9
$DIMASO
 70
     1
  9
$DIMSHO
 70
     1
  9
$DIMPOST
  1

  9
$DIMAPOST
  1

  9
$DIMALT
 70
     0
  9
$DIMALTD
 70
     3
  9
$DIMALTF
 40
0.0393700787
  9
$DIMLFAC
 40
1.0
  9
$DIMTOFL
 70
     1
  9
$DIMTVP
 40
0.0
  9
$DIMTIX
 70
     0
  9
$DIMSOXD
 70
     0
  9
$DIMSAH
 70
     0
  9
$DIMBLK1
  1

  9
$DIMBLK2
  1

  9
$DIMSTYLE
  2
ISO-25
  9
$DIMCLRD
 70
     0
  9
$DIMCLRE
 70
     0
  9
$DIMCLRT
 70
     0
  9
$DIMTFAC
 40
1.0
  9
$DIMGAP
 40
1.524
  9
$DIMJUST
 70
     0
  9
$DIMSD1
 70
     0
  9
$DIMSD2
 70
     0
  9
$DIMTOLJ
 70
     0
  9
$DIMTZIN
 70
     1
  9
$DIMALTZ
 70
     0
  9
$DIMALTTZ
 70
     0
  9
$DIMUPT
 70
     0
  9
$DIMDEC
 70
     2
  9
$DIMTDEC
 70
     2
  9
$DIMALTU
 70
     2
  9
$DIMALTTD
 70
     3
  9
$DIMTXSTY
  7
Standard
  9
$DIMAUNIT
 70
     0
  9
$DIMADEC
 70
     2
  9
$DIMALTRND
 40
0.0
  9
$DIMAZIN
 70
     0
  9
$DIMDSEP
 70
    44
  9
$DIMATFIT
 70
     3
  9
$DIMFRAC
 70
     0
  9
$DIMLDRBLK
  1

  9
$DIMLUNIT
 70
     2
  9
$DIMLWD
 70
    -2
  9
$DIMLWE
 70
    -2
  9
$DIMTMOVE
 70
     0
  9
$LUNITS
 70
     2
  9
$LUPREC
 70
     2
  9
$SKETCHINC
 40
1.0
  9
$FILLETRAD
 40
10.0
  9
$AUNITS
 70
     0
  9
$AUPREC
 70
     2
  9
$MENU
  1
.
  9
$ELEVATION
 40
0.0
  9
$PELEVATION
 40
0.0
  9
$THICKNESS
 40
0.0
  9
$LIMCHECK
 70
     0
  9
$CHAMFERA
 40
0.0
  9
$CHAMFERB
 40
0.0
  9
$CHAMFERC
 40
0.0
  9
$CHAMFERD
 40
0.0
  9
$SKPOLY
 70
     0
  9
$TDCREATE
 40
2459150.603284884
  9
$TDUCREATE
 40
2459150.769951551
  9
$TDUPDATE
 40
2459150.603288252
  9
$TDUUPDATE
 40
2459150.769954919
  9
$TDINDWG
 40
0.0000000116
  9
$TDUSRTIMER
 40
0.0000000116
  9
$USRTIMER
 70
     1
  9
$ANGBASE
 50
0.0
  9
$ANGDIR
 70
     0
  9
$PDMODE
 70
     0
  9
$PDSIZE
 40
-1.0
  9
$PLINEWID
 40
0.0
  9
$SPLFRAME
 70
     0
  9
$SPLINETYPE
 70
     6
  9
$SPLINESEGS
 70
     8
  9
$HANDSEED
  5
2B1
  9
$SURFTAB1
 70
     6
  9
$SURFTAB2
 70
     6
  9
$SURFTYPE
 70
     6
  9
$SURFU
 70
     6
  9
$SURFV
 70
     6
  9
$UCSBASE
  2

  9
$UCSNAME
  2

  9
$UCSORG
 10
0.0
 20
0.0
 30
0.0
  9
$UCSXDIR
 10
1.0
 20
0.0
 30
0.0
  9
$UCSYDIR
 10
0.0
 20
1.0
 30
0.0
  9
$UCSORTHOREF
  2

  9
$UCSORTHOVIEW
 70
     0
  9
$UCSORGTOP
 10
0.0
 20
0.0
 30
0.0
  9
$UCSORGBOTTOM
 10
0.0
 20
0.0
 30
0.0
  9
$UCSORGLEFT
 10
0.0
 20
0.0
 30
0.0
  9
$UCSORGRIGHT
 10
0.0
 20
0.0
 30
0.0
  9
$UCSORGFRONT
 10
0.0
 20
0.0
 30
0.0
  9
$UCSORGBACK
 10
0.0
 20
0.0
 30
0.0
  9
$PUCSBASE
  2

  9
$PUCSNAME
  2

  9
$PUCSORG
 10
0.0
 20
0.0
 30
0.0
  9
$PUCSXDIR
 10
1.0
 20
0.0
 30
0.0
  9
$PUCSYDIR
 10
0.0
 20
1.0
 30
0.0
  9
$PUCSORTHOREF
  2

  9
$PUCSORTHOVIEW
 70
     0
  9
$PUCSORGTOP
 10
0.0
 20
0.0
 30
0.0
  9
$PUCSORGBOTTOM
 10
0.0
 20
0.0
 30
0.0
  9
$PUCSORGLEFT
 10
0.0
 20
0.0
 30
0.0
  9
$PUCSORGRIGHT
 10
0.0
 20
0.0
 30
0.0
  9
$PUCSORGFRONT
 10
0.0
 20
0.0
 30
0.0
  9
$PUCSORGBACK
 10
0.0
 20
0.0
 30
0.0
  9
$USERI1
 70
     0
  9
$USERI2
 70
     0
  9
$USERI3
 70
     0
  9
$USERI4
 70
     0
  9
$USERI5
 70
     0
  9
$USERR1
 40
0.0
  9
$USERR2
 40
0.0
  9
$USERR3
 40
0.0
  9
$USERR4
 40
0.0
  9
$USERR5
 40
0.0
  9
$WORLDVIEW
 70
     1
  9
$SHADEDGE
 70
     3
  9
$SHADEDIF
 70
    70
  9
$TILEMODE
 70
     1
  9
$MAXACTVP
 70
    64
  9
$PINSBASE
 10
0.0
 20
0.0
 30
0.0
  9
$PLIMCHECK
 70
     0
  9
$PEXTMIN
 10
1.0000000000E+20
 20
1.0000000000E+20
 30
1.0000000000E+20
  9
$PEXTMAX
 10
-1.0000000000E+20
 20
-1.0000000000E+20
 30
-1.0000000000E+20
  9
$PLIMMIN
 10
0.0
 20
0.0
  9
$PLIMMAX
 10
420.0
 20
297.0
  9
$UNITMODE
 70
     0
  9
$VISRETAIN
 70
     1
  9
$PLINEGEN
 70
     0
  9
$PSLTSCALE
 70
     1
  9
$TREEDEPTH
 70
  3020
  9
$CMLSTYLE
  2
Standard
  9
$CMLJUST
 70
     0
  9
$CMLSCALE
 40
20.0
  9
$PROXYGRAPHICS
 70
     1
  9
$MEASUREMENT
 70
     1
  9
$CELWEIGHT
370
    -1
  9
$ENDCAPS
280
     0
  9
$JOINSTYLE
280
     0
  9
$LWDISPLAY
290
     1
  9
$INSUNITS
 70
     4
  9
$HYPERLINKBASE
  1

  9
$STYLESHEET
  1

  9
$XEDIT
290
     1
  9
$CEPSNTYPE
380
     0
  9
$PSTYLEMODE
290
     1
  9
$FINGERPRINTGUID
  2
{bf8f7849-63f1-4124-8ed9-d8d6eb785f2d}
  9
$VERSIONGUID
  2
{FAEB1C32-E019-11D5-929B-00C0DF256EC4}
  9
$EXTNAMES
290
     1
  9
$PSVPSCALE
 40
0.0
  9
$OLESTARTUP
290
     0
  0
ENDSEC
  0
SECTION
  2
CLASSES
  0
CLASS
  1
ACDBDICTIONARYWDFLT
  2
AcDbDictionaryWithDefault
  3
ObjectDBX Classes
 90
        0
280
     0
281
     0
  0
CLASS
  1
VISUALSTYLE
  2
AcDbVisualStyle
  3
ObjectDBX Classes
 90
     4095
280
     0
281
     0
  0
CLASS
  1
MATERIAL
  2
AcDbMaterial
  3
ObjectDBX Classes
 90
     1153
280
     0
281
     0
  0
CLASS
  1
SCALE
  2
AcDbScale
  3
ObjectDBX Classes
 90
     1153
280
     0
281
     0
  0
CLASS
  1
TABLESTYLE
  2
AcDbTableStyle
  3
ObjectDBX Classes
 90
     4095
280
     0
281
     0
  0
CLASS
  1
MLEADERSTYLE
  2
AcDbMLeaderStyle
  3
ACDB_MLEADERSTYLE_CLASS
 90
     4095
280
     0
281
     0
  0
CLASS
  1
SUN
  2
AcDbSun
  3
SCENEOE
 90
     1153
280
     0
281
     0
  0
CLASS
  1
ACDBPLACEHOLDER
  2
AcDbPlaceHolder
  3
ObjectDBX Classes
 90
        0
280
     0
281
     0
  0
CLASS
  1
LAYOUT
  2
AcDbLayout
  3
ObjectDBX Classes
 90
        0
280
     0
281
     0
  0
ENDSEC
  0
SECTION
  2
TABLES
  0
TABLE
  2
VPORT
  5
8
330
0
100
AcDbSymbolTable
 70
     1
  0
VPORT
  5
29
330
8
100
AcDbSymbolTableRecord
100
AcDbViewportTableRecord
  2
*Active
 70
     0
 10
0.0
 20
0.0
 11
1.0
 21
1.0
 12
297.0
 22
210.0
 13
0.0
 23
0.0
 14
10.0
 24
10.0
 15
10.0
 25
10.0
 16
0.0
 26
0.0
 36
1.0
 17
0.0
 27
0.0
 37
0.0
 40
420.0
 41
1.4142857143
 42
50.0
 43
0.0
 44
0.0
 50
0.0
 51
0.0
 71
     0
 72
  2000
 73
     1
 74
     3
 75
     0
 76
     0
 77
     0
 78
     0
281
     0
 65
     1
110
0.0
120
0.0
130
0.0
111
1.0
121
0.0
131
0.0
112
0.0
122
1.0
132
0.0
 79
     0
146
0.0
  0
ENDTAB
  0
TABLE
  2
LTYPE
  5
5
330
0
100
AcDbSymbolTable
 70
     6
  0
LTYPE
  5
14
330
5
100
AcDbSymbolTableRecord
100
AcDbLinetypeTableRecord
  2
ByBlock
 70
     0
  3

 72
    65
 73
     0
 40
0.0
  0
LTYPE
  5
15
330
5
100
AcDbSymbolTableRecord
100
AcDbLinetypeTableRecord
  2
ByLayer
 70
     0
  3

 72
    65
 73
     0
 40
0.0
  0
LTYPE
  5
16
330
5
100
AcDbSymbolTableRecord
100
AcDbLinetypeTableRecord
  2
Continuous
 70
     0
  3
Solid line
 72
    65
 73
     0
 40
0.0
  0
LTYPE
  5
6E
330
5
100
AcDbSymbolTableRecord
100
AcDbLinetypeTableRecord
  2
HIDDEN
 70
     0
  3
Hidden __ __ __ __ __ __ __ __ __ __ __ __ __ __
 72
    65
 73
     2
 40
1.905
 49
1.27
 74
     0
 49
-0.635
 74
     0
  0
LTYPE
  5
6F
330
5
100
AcDbSymbolTableRecord
100
AcDbLinetypeTableRecord
  2
PHANTOM
 70
     0
  3
Phantom ______  __  __  ______  __  __  ______
 72
    65
 73
     6
 40
12.7
 49
6.35
 74
     0
 49
-1.27
 74
     0
 49
1.27
 74
     0
 49
-1.27
 74
     0
 49
1.27
 74
     0
 49
-1.27
 74
     0
  0
LTYPE
  5
70
330
5
100
AcDbSymbolTableRecord
100
AcDbLinetypeTableRecord
  2
CENTER
 70
     0
  3
Center ____ _ ____ _ ____ _ ____ _ ____ _ ____
 72
    65
 73
     4
 40
10.16
 49
6.35
 74
     0
 49
-1.27
 74
     0
 49
1.27
 74
     0
 49
-1.27
 74
     0
  0
LTYPE
  5
71
330
5
100
AcDbSymbolTableRecord
100
AcDbLinetypeTableRecord
  2
CENTERX2
 70
     0
  3
Center (2x) ________  __  ________  __  _____
 72
    65
 73
     4
 40
20.32
 49
12.7
 74
     0
 49
-2.54
 74
     0
 49
2.54
 74
     0
 49
-2.54
 74
     0
  0
LTYPE
  5
72
330
5
100
AcDbSymbolTableRecord
100
AcDbLinetypeTableRecord
  2
DOT2
 70
     0
  3
Dot (.5x) ........................................
 72
    65
 73
     2
 40
0.635
 49
0.0
 74
     0
 49
-0.635
 74
     0
  0
ENDTAB
  0
TABLE
  2
LAYER
  5
2
330
0
100
AcDbSymbolTable
 70
     2
  0
LAYER
  5
10
330
2
100
AcDbSymbolTableRecord
100
AcDbLayerTableRecord
  2
0
 70
     0
 62
     7
  6
Continuous
370
    -3
390
F
  0
LAYER
  5
73
330
2
100
AcDbSymbolTableRecord
100
AcDbLayerTableRecord
  2
FORMAT
 70
     0
 62
     7
  6
Continuous
370
    -3
390
F
  0
ENDTAB
  0
TABLE
  2
STYLE
  5
3
330
0
100
AcDbSymbolTable
 70
     4
  0
STYLE
  5
11
330
3
100
AcDbSymbolTableRecord
100
AcDbTextStyleTableRecord
  2
Standard
 70
     0
 40
0.0
 41
1.0
 50
0.0
 71
     0
 42
3.5
  3
txt
  4

  0
STYLE
  5
BD
330
3
100
AcDbSymbolTableRecord
100
AcDbTextStyleTableRecord
  2
SLDTEXTSTYLE0
 70
     0
 40
0.0
 41
0.6864493306
 50
0.0
 71
     0
 42
3.5
  3
TXT
  4

  0
STYLE
  5
BF
330
3
100
AcDbSymbolTableRecord
100
AcDbTextStyleTableRecord
  2
SLDTEXTSTYLE1
 70
     0
 40
0.0
 41
0.75
 50
0.0
 71
     0
 42
3.5
  3
TXT
  4

  0
STYLE
  5
DF
330
3
100
AcDbSymbolTableRecord
100
AcDbTextStyleTableRecord
  2
SLDTEXTSTYLE2
 70
     0
 40
0.0
 41
0.6875
 50
0.0
 71
     0
 42
3.5
  3
TXT
  4

  0
ENDTAB
  0
TABLE
  2
VIEW
  5
6
330
0
100
AcDbSymbolTable
 70
     0
  0
ENDTAB
  0
TABLE
  2
UCS
  5
7
330
0
100
AcDbSymbolTable
 70
     0
  0
ENDTAB
  0
TABLE
  2
APPID
  5
9
330
0
100
AcDbSymbolTable
 70
     1
  0
APPID
  5
12
330
9
100
AcDbSymbolTableRecord
100
AcDbRegAppTableRecord
  2
ACAD
 70
     0
  0
ENDTAB
  0
TABLE
  2
DIMSTYLE
  5
A
330
0
100
AcDbSymbolTable
 70
     1
100
AcDbDimStyleTable
  0
DIMSTYLE
105
27
330
A
100
AcDbSymbolTableRecord
100
AcDbDimStyleTableRecord
  2
ISO-25
 70
     0
 41
2.5
 42
0.625
 43
3.75
 44
1.25
 73
     0
 74
     0
 77
     1
 78
     8
140
2.5
141
2.5
143
0.0393700787
147
0.625
171
     3
172
     1
178
     0
271
     2
272
     2
274
     3
278
    44
283
     0
284
     8
340
11
  0
ENDTAB
  0
TABLE
  2
BLOCK_RECORD
  5
1
330
0
100
AcDbSymbolTable
 70
     7
  0
BLOCK_RECORD
  5
1F
330
1
100
AcDbSymbolTableRecord
100
AcDbBlockTableRecord
  2
*Model_Space
340
22
  0
BLOCK_RECORD
  5
1B
330
1
100
AcDbSymbolTableRecord
100
AcDbBlockTableRecord
  2
*Paper_Space
340
1E
  0
BLOCK_RECORD
  5
23
330
1
100
AcDbSymbolTableRecord
100
AcDbBlockTableRecord
  2
*Paper_Space0
340
26
  0
BLOCK_RECORD
  5
C4
330
1
100
AcDbSymbolTableRecord
100
AcDbBlockTableRecord
  2
SW_NOTE_0
340
0
102
{BLKREFS
331
CD
102
}
  0
BLOCK_RECORD
  5
CF
330
1
100
AcDbSymbolTableRecord
100
AcDbBlockTableRecord
  2
SW_NOTE_0_1
340
0
102
{BLKREFS
331
D5
102
}
  0
BLOCK_RECORD
  5
E5
330
1
100
AcDbSymbolTableRecord
100
AcDbBlockTableRecord
  2
SW_NOTE_0_2
340
0
102
{BLKREFS
331
EA
102
}
  0
BLOCK_RECORD
  5
28D
330
1
100
AcDbSymbolTableRecord
100
AcDbBlockTableRecord
  2
SW_CENTERMARKSYMBOL_0
340
0
102
{BLKREFS
331
298
102
}
  0
BLOCK_RECORD
  5
299
330
1
100
AcDbSymbolTableRecord
100
AcDbBlockTableRecord
  2
SW_CENTERMARKSYMBOL_1
340
0
102
{BLKREFS
331
2A4
102
}
  0
BLOCK_RECORD
  5
2A5
330
1
100
AcDbSymbolTableRecord
100
AcDbBlockTableRecord
  2
SW_CENTERMARKSYMBOL_2
340
0
102
{BLKREFS
331
2B0
102
}
  0
ENDTAB
  0
ENDSEC
  0
SECTION
  2
BLOCKS
  0
BLOCK
  5
20
330
1F
100
AcDbEntity
  8
0
100
AcDbBlockBegin
  2
*Model_Space
 70
     0
 10
0.0
 20
0.0
 30
0.0
  3
*Model_Space
  1

  0
ENDBLK
  5
21
330
1F
100
AcDbEntity
  8
0
100
AcDbBlockEnd
  0
BLOCK
  5
1C
330
1B
100
AcDbEntity
 67
     1
  8
0
100
AcDbBlockBegin
  2
*Paper_Space
 70
     0
 10
0.0
 20
0.0
 30
0.0
  3
*Paper_Space
  1

  0
ENDBLK
  5
1D
330
1B
100
AcDbEntity
 67
     1
  8
0
100
AcDbBlockEnd
  0
BLOCK
  5
24
330
23
100
AcDbEntity
  8
0
100
AcDbBlockBegin
  2
*Paper_Space0
 70
     0
 10
0.0
 20
0.0
 30
0.0
  3
*Paper_Space0
  1

  0
ENDBLK
  5
25
330
23
100
AcDbEntity
  8
0
100
AcDbBlockEnd
  0
BLOCK
  5
C5
330
C4
100
AcDbEntity
  8
0
100
AcDbBlockBegin
  2
SW_NOTE_0
 70
     0
 10
0.0
 20
0.0
 30
0.0
  3
SW_NOTE_0
  1

  0
MTEXT
  5
C7
330
C4
100
AcDbEntity
  8
0
  6
Continuous
 62
     0
370
     0
100
AcDbMText
 10
0.0
 20
1.9336016097
 30
0.0
 40
1.5
 41
0.0
 71
     1
 72
     1
  1
UNLESS OTHERWISE SPECIFIED:
  7
SLDTEXTSTYLE1
 73
     1
 44
1.0
  0
MTEXT
  5
C8
330
C4
100
AcDbEntity
  8
0
  6
Continuous
 62
     0
370
     0
100
AcDbMText
 10
0.0
 20
-0.5663983345
 30
0.0
 40
1.5
 41
0.0
 71
     1
 72
     1
  1
DIMENSIONS ARE IN MILLIMETERS
  7
SLDTEXTSTYLE1
 73
     1
 44
1.0
  0
MTEXT
  5
C9
330
C4
100
AcDbEntity
  8
0
  6
Continuous
 62
     0
370
     0
100
AcDbMText
 10
0.0
 20
-3.0663982786
 30
0.0
 40
1.5
 41
0.0
 71
     1
 72
     1
  1
SURFACE FINISH:
  7
SLDTEXTSTYLE1
 73
     1
 44
1.0
  0
MTEXT
  5
CA
330
C4
100
AcDbEntity
  8
0
  6
Continuous
 62
     0
370
     0
100
AcDbMText
 10
0.0
 20
-5.5663982227
 30
0.0
 40
1.5
 41
0.0
 71
     1
 72
     1
  1
TOLERANCES:
  7
SLDTEXTSTYLE1
 73
     1
 44
1.0
  0
MTEXT
  5
CB
330
C4
100
AcDbEntity
  8
0
  6
Continuous
 62
     0
370
     0
100
AcDbMText
 10
1.6875
 20
-8.0663981668
 30
0.0
 40
1.5
 41
0.0
 71
     1
 72
     1
  1
LINEAR:
  7
SLDTEXTSTYLE1
 73
     1
 44
1.0
  0
MTEXT
  5
CC
330
C4
100
AcDbEntity
  8
0
  6
Continuous
 62
     0
370
     0
100
AcDbMText
 10
1.6875
 20
-10.5663981109
 30
0.0
 40
1.5
 41
0.0
 71
     1
 72
     1
  1
ANGULAR:
  7
SLDTEXTSTYLE1
 73
     1
 44
1.0
  0
ENDBLK
  5
C6
330
C4
100
AcDbEntity
  8
0
100
AcDbBlockEnd
  0
BLOCK
  5
D0
330
CF
100
AcDbEntity
  8
0
100
AcDbBlockBegin
  2
SW_NOTE_0_1
 70
     0
 10
0.0
 20
0.0
 30
0.0
  3
SW_NOTE_0_1
  1

  0
MTEXT
  5
D2
330
CF
100
AcDbEntity
  8
0
  6
Continuous
 62
     0
370
     0
100
AcDbMText
 10
0.0
 20
1.9336016097
 30
0.0
 40
1.5
 41
0.0
 71
     1
 72
     1
  1
DEBURR AND
  7
SLDTEXTSTYLE1
 73
     1
 44
1.0
  0
MTEXT
  5
D3
330
CF
100
AcDbEntity
  8
0
  6
Continuous
 62
     0
370
     0
100
AcDbMText
 10
0.0
 20
-0.5663983345
 30
0.0
 40
1.5
 41
0.0
 71
     1
 72
     1
  1
BREAK SHARP
  7
SLDTEXTSTYLE1
 73
     1
 44
1.0
  0
MTEXT
  5
D4
330
CF
100
AcDbEntity
  8
0
  6
Continuous
 62
     0
370
     0
100
AcDbMText
 10
0.0
 20
-3.0663982786
 30
0.0
 40
1.5
 41
0.0
 71
     1
 72
     1
  1
EDGES
  7
SLDTEXTSTYLE1
 73
     1
 44
1.0
  0
ENDBLK
  5
D1
330
CF
100
AcDbEntity
  8
0
100
AcDbBlockEnd
  0
BLOCK
  5
E6
330
E5
100
AcDbEntity
  8
0
100
AcDbBlockBegin
  2
SW_NOTE_0_2
 70
     0
 10
0.0
 20
0.0
 30
0.0
  3
SW_NOTE_0_2
  1

  0
MTEXT
  5
E8
330
E5
100
AcDbEntity
  8
0
  6
Continuous
 62
     0
370
     0
100
AcDbMText
 10
35.42109375
 20
8.1855801476
 30
0.0
 40
6.35
 41
0.0
 71
     2
 72
     1
  1
FRONT_IP_PANEL_
  7
SLDTEXTSTYLE1
 73
     1
 44
1.0
  0
MTEXT
  5
E9
330
E5
100
AcDbEntity
  8
0
  6
Continuous
 62
     0
370
     0
100
AcDbMText
 10
35.3384108499
 20
0.0716911239
 30
0.0
 40
6.35
 41
0.0
 71
     2
 72
     1
  1
V1
  7
SLDTEXTSTYLE1
 73
     1
 44
1.0
  0
ENDBLK
  5
E7
330
E5
100
AcDbEntity
  8
0
100
AcDbBlockEnd
  0
BLOCK
  5
28E
330
28D
100
AcDbEntity
  8
0
100
AcDbBlockBegin
  2
SW_CENTERMARKSYMBOL_0
 70
     0
 10
0.0
 20
0.0
 30
0.0
  3
SW_CENTERMARKSYMBOL_0
  1

  0
LINE
  5
290
330
28D
100
AcDbEntity
  8
0
  6
Continuous
 62
     0
370
    18
100
AcDbLine
 10
0.0
 20
0.0
 30
0.0
 11
0.0
 21
2.5
 31
0.0
  0
LINE
  5
291
330
28D
100
AcDbEntity
  8
0
  6
Continuous
 62
     0
370
    18
100
AcDbLine
 10
0.0
 20
0.0
 30
0.0
 11
-2.5
 21
0.0
 31
0.0
  0
LINE
  5
292
330
28D
100
AcDbEntity
  8
0
  6
Continuous
 62
     0
370
    18
100
AcDbLine
 10
0.0
 20
0.0
 30
0.0
 11
0.0
 21
-2.5
 31
0.0
  0
LINE
  5
293
330
28D
100
AcDbEntity
  8
0
  6
Continuous
 62
     0
370
    18
100
AcDbLine
 10
0.0
 20
0.0
 30
0.0
 11
2.5
 21
0.0
 31
0.0
  0
LINE
  5
294
330
28D
100
AcDbEntity
  8
0
  6
Continuous
 62
     0
370
    18
100
AcDbLine
 10
0.0
 20
5.0
 30
0.0
 11
0.0
 21
19.0
 31
0.0
  0
LINE
  5
295
330
28D
100
AcDbEntity
  8
0
  6
Continuous
 62
     0
370
    18
100
AcDbLine
 10
-5.0
 20
0.0
 30
0.0
 11
-19.0
 21
0.0
 31
0.0
  0
LINE
  5
296
330
28D
100
AcDbEntity
  8
0
  6
Continuous
 62
     0
370
    18
100
AcDbLine
 10
0.0
 20
-5.0
 30
0.0
 11
0.0
 21
-19.0
 31
0.0
  0
LINE
  5
297
330
28D
100
AcDbEntity
  8
0
  6
Continuous
 62
     0
370
    18
100
AcDbLine
 10
5.0
 20
0.0
 30
0.0
 11
19.0
 21
0.0
 31
0.0
  0
ENDBLK
  5
28F
330
28D
100
AcDbEntity
  8
0
100
AcDbBlockEnd
  0
BLOCK
  5
29A
330
299
100
AcDbEntity
  8
0
100
AcDbBlockBegin
  2
SW_CENTERMARKSYMBOL_1
 70
     0
 10
0.0
 20
0.0
 30
0.0
  3
SW_CENTERMARKSYMBOL_1
  1

  0
LINE
  5
29C
330
299
100
AcDbEntity
  8
0
  6
Continuous
 62
     0
370
    18
100
AcDbLine
 10
0.0
 20
0.0
 30
0.0
 11
0.0
 21
2.5
 31
0.0
  0
LINE
  5
29D
330
299
100
AcDbEntity
  8
0
  6
Continuous
 62
     0
370
    18
100
AcDbLine
 10
0.0
 20
0.0
 30
0.0
 11
-2.5
 21
0.0
 31
0.0
  0
LINE
  5
29E
330
299
100
AcDbEntity
  8
0
  6
Continuous
 62
     0
370
    18
100
AcDbLine
 10
0.0
 20
0.0
 30
0.0
 11
0.0
 21
-2.5
 31
0.0
  0
LINE
  5
29F
330
299
100
AcDbEntity
  8
0
  6
Continuous
 62
     0
370
    18
100
AcDbLine
 10
0.0
 20
0.0
 30
0.0
 11
2.5
 21
0.0
 31
0.0
  0
LINE
  5
2A0
330
299
100
AcDbEntity
  8
0
  6
Continuous
 62
     0
370
    18
100
AcDbLine
 10
0.0
 20
5.0
 30
0.0
 11
0.0
 21
19.0
 31
0.0
  0
LINE
  5
2A1
330
299
100
AcDbEntity
  8
0
  6
Continuous
 62
     0
370
    18
100
AcDbLine
 10
-5.0
 20
0.0
 30
0.0
 11
-19.0
 21
0.0
 31
0.0
  0
LINE
  5
2A2
330
299
100
AcDbEntity
  8
0
  6
Continuous
 62
     0
370
    18
100
AcDbLine
 10
0.0
 20
-5.0
 30
0.0
 11
0.0
 21
-19.0
 31
0.0
  0
LINE
  5
2A3
330
299
100
AcDbEntity
  8
0
  6
Continuous
 62
     0
370
    18
100
AcDbLine
 10
5.0
 20
0.0
 30
0.0
 11
19.0
 21
0.0
 31
0.0
  0
ENDBLK
  5
29B
330
299
100
AcDbEntity
  8
0
100
AcDbBlockEnd
  0
BLOCK
  5
2A6
330
2A5
100
AcDbEntity
  8
0
100
AcDbBlockBegin
  2
SW_CENTERMARKSYMBOL_2
 70
     0
 10
0.0
 20
0.0
 30
0.0
  3
SW_CENTERMARKSYMBOL_2
  1

  0
LINE
  5
2A8
330
2A5
100
AcDbEntity
  8
0
  6
Continuous
 62
     0
370
    18
100
AcDbLine
 10
0.0
 20
0.0
 30
0.0
 11
0.0
 21
2.5
 31
0.0
  0
LINE
  5
2A9
330
2A5
100
AcDbEntity
  8
0
  6
Continuous
 62
     0
370
    18
100
AcDbLine
 10
0.0
 20
0.0
 30
0.0
 11
-2.5
 21
0.0
 31
0.0
  0
LINE
  5
2AA
330
2A5
100
AcDbEntity
  8
0
  6
Continuous
 62
     0
370
    18
100
AcDbLine
 10
0.0
 20
0.0
 30
0.0
 11
0.0
 21
-2.5
 31
0.0
  0
LINE
  5
2AB
330
2A5
100
AcDbEntity
  8
0
  6
Continuous
 62
     0
370
    18
100
AcDbLine
 10
0.0
 20
0.0
 30
0.0
 11
2.5
 21
0.0
 31
0.0
  0
LINE
  5
2AC
330
2A5
100
AcDbEntity
  8
0
  6
Continuous
 62
     0
370
    18
100
AcDbLine
 10
0.0
 20
5.0
 30
0.0
 11
0.0
 21
10.12
 31
0.0
  0
LINE
  5
2AD
330
2A5
100
AcDbEntity
  8
0
  6
Continuous
 62
     0
370
    18
100
AcDbLine
 10
-5.0
 20
0.0
 30
0.0
 11
-10.12
 21
0.0
 31
0.0
  0
LINE
  5
2AE
330
2A5
100
AcDbEntity
  8
0
  6
Continuous
 62
     0
370
    18
100
AcDbLine
 10
0.0
 20
-5.0
 30
0.0
 11
0.0
 21
-10.12
 31
0.0
  0
LINE
  5
2AF
330
2A5
100
AcDbEntity
  8
0
  6
Continuous
 62
     0
370
    18
100
AcDbLine
 10
5.0
 20
0.0
 30
0.0
 11
10.12
 21
0.0
 31
0.0
  0
ENDBLK
  5
2A7
330
2A5
100
AcDbEntity
  8
0
100
AcDbBlockEnd
  0
ENDSEC
  0
SECTION
  2
ENTITIES
  0
LINE
  5
74
330
1F
100
AcDbEntity
  8
0
  6
Continuous
 62
     7
370
    50
100
AcDbLine
 10
404.0
 20
14.25
 30
0.0
 11
584.0
 21
14.25
 31
0.0
  0
LINE
  5
75
330
1F
100
AcDbEntity
  8
0
  6
Continuous
 62
     7
370
    50
100
AcDbLine
 10
584.0
 20
48.25
 30
0.0
 11
404.0
 21
48.25
 31
0.0
  0
LINE
  5
76
330
1F
100
AcDbEntity
  8
0
  6
Continuous
 62
     7
370
    50
100
AcDbLine
 10
404.0
 20
65.25
 30
0.0
 11
584.0
 21
65.25
 31
0.0
  0
LINE
  5
77
330
1F
100
AcDbEntity
  8
0
  6
Continuous
 62
     7
370
    50
100
AcDbLine
 10
430.9909524338
 20
48.25
 30
0.0
 11
430.9909524338
 21
10.0
 31
0.0
  0
LINE
  5
78
330
1F
100
AcDbEntity
  8
0
  6
Continuous
 62
     7
370
    50
100
AcDbLine
 10
502.8
 20
31.25
 30
0.0
 11
404.0
 21
31.25
 31
0.0
  0
LINE
  5
79
330
1F
100
AcDbEntity
  8
0
  6
Continuous
 62
     7
370
    50
100
AcDbLine
 10
502.8
 20
35.5
 30
0.0
 11
404.0
 21
35.5
 31
0.0
  0
LINE
  5
7A
330
1F
100
AcDbEntity
  8
0
  6
Continuous
 62
     7
370
    50
100
AcDbLine
 10
502.8
 20
39.75
 30
0.0
 11
404.0
 21
39.75
 31
0.0
  0
LINE
  5
7B
330
1F
100
AcDbEntity
  8
0
  6
Continuous
 62
     7
370
    50
100
AcDbLine
 10
502.8
 20
44.0
 30
0.0
 11
404.0
 21
44.0
 31
0.0
  0
LINE
  5
7C
330
1F
100
AcDbEntity
  8
0
  6
Continuous
 62
     7
370
    50
100
AcDbLine
 10
458.6
 20
10.0
 30
0.0
 11
458.6
 21
48.25
 31
0.0
  0
LINE
  5
7D
330
1F
100
AcDbEntity
  8
0
  6
Continuous
 62
     7
370
    50
100
AcDbLine
 10
404.0
 20
65.25
 30
0.0
 11
404.0
 21
10.0
 31
0.0
  0
LINE
  5
7E
330
1F
100
AcDbEntity
  8
0
  6
Continuous
 62
     7
370
    50
100
AcDbLine
 10
411.8
 20
48.25
 30
0.0
 11
411.8
 21
10.0
 31
0.0
  0
LINE
  5
7F
330
1F
100
AcDbEntity
  8
0
  6
Continuous
 62
     7
370
    50
100
AcDbLine
 10
437.8
 20
48.25
 30
0.0
 11
437.8
 21
65.25
 31
0.0
  0
LINE
  5
80
330
1F
100
AcDbEntity
  8
0
  6
Continuous
 62
     7
370
    50
100
AcDbLine
 10
448.3989261635
 20
48.25
 30
0.0
 11
448.3989261635
 21
10.0
 31
0.0
  0
LINE
  5
81
330
1F
100
AcDbEntity
  8
0
  6
Continuous
 62
     7
370
    50
100
AcDbLine
 10
469.0
 20
31.25
 30
0.0
 11
469.0
 21
48.25
 31
0.0
  0
LINE
  5
82
330
1F
100
AcDbEntity
  8
0
  6
Continuous
 62
     7
370
    50
100
AcDbLine
 10
458.6
 20
18.5
 30
0.0
 11
404.0
 21
18.5
 31
0.0
  0
LINE
  5
83
330
1F
100
AcDbEntity
  8
0
  6
Continuous
 62
     7
370
    50
100
AcDbLine
 10
484.6
 20
65.25
 30
0.0
 11
484.6
 21
27.0
 31
0.0
  0
LINE
  5
84
330
1F
100
AcDbEntity
  8
0
  6
Continuous
 62
     7
370
    50
100
AcDbLine
 10
458.6
 20
22.749928
 30
0.0
 11
404.0
 21
22.749928
 31
0.0
  0
LINE
  5
85
330
1F
100
AcDbEntity
  8
0
  6
Continuous
 62
     7
370
    50
100
AcDbLine
 10
458.6
 20
27.0
 30
0.0
 11
404.0
 21
27.0
 31
0.0
  0
LINE
  5
86
330
1F
100
AcDbEntity
  8
0
  6
Continuous
 62
     7
370
    50
100
AcDbLine
 10
458.6
 20
27.0
 30
0.0
 11
584.0
 21
27.0
 31
0.0
  0
LINE
  5
87
330
1F
100
AcDbEntity
  8
0
  6
Continuous
 62
     7
370
    50
100
AcDbLine
 10
502.8
 20
65.25
 30
0.0
 11
502.8
 21
10.0
 31
0.0
  0
LINE
  5
88
330
1F
100
AcDbEntity
  8
0
  6
Continuous
 62
     7
370
    50
100
AcDbLine
 10
547.0
 20
10.0
 30
0.0
 11
547.0
 21
14.25
 31
0.0
  0
LINE
  5
89
330
1F
100
AcDbEntity
  8
0
  6
Continuous
 62
     7
370
    50
100
AcDbLine
 10
554.8
 20
58.875
 30
0.0
 11
554.8
 21
65.25
 31
0.0
  0
LINE
  5
8A
330
1F
100
AcDbEntity
  8
0
  6
Continuous
 62
     7
370
    50
100
AcDbLine
 10
571.0
 20
14.25
 30
0.0
 11
571.0
 21
27.0
 31
0.0
  0
LINE
  5
8B
330
1F
100
AcDbEntity
  8
0
  6
Continuous
 62
     7
370
    50
100
AcDbLine
 10
584.0
 20
58.875
 30
0.0
 11
502.8
 21
58.875
 31
0.0
  0
LINE
  5
8C
330
1F
100
AcDbEntity
  8
0
  6
Continuous
 62
     7
370
    50
100
AcDbLine
 10
584.0
 20
18.5
 30
0.0
 11
571.0
 21
18.5
 31
0.0
  0
LINE
  5
8D
330
1F
100
AcDbEntity
  8
0
  6
Continuous
 62
     7
370
    35
100
AcDbLine
 10
20.0
 20
60.0
 30
0.0
 11
15.0
 21
60.0
 31
0.0
  0
LINE
  5
8E
330
1F
100
AcDbEntity
  8
0
  6
Continuous
 62
     7
370
    35
100
AcDbLine
 10
584.0
 20
60.0
 30
0.0
 11
589.0
 21
60.0
 31
0.0
  0
LINE
  5
8F
330
1F
100
AcDbEntity
  8
0
  6
Continuous
 62
     7
370
    35
100
AcDbLine
 10
20.0
 20
110.0
 30
0.0
 11
15.0
 21
110.0
 31
0.0
  0
LINE
  5
90
330
1F
100
AcDbEntity
  8
0
  6
Continuous
 62
     7
370
    35
100
AcDbLine
 10
584.0
 20
110.0
 30
0.0
 11
589.0
 21
110.0
 31
0.0
  0
LINE
  5
91
330
1F
100
AcDbEntity
  8
0
  6
Continuous
 62
     7
370
    35
100
AcDbLine
 10
20.0
 20
160.0
 30
0.0
 11
15.0
 21
160.0
 31
0.0
  0
LINE
  5
92
330
1F
100
AcDbEntity
  8
0
  6
Continuous
 62
     7
370
    35
100
AcDbLine
 10
584.0
 20
160.0
 30
0.0
 11
589.0
 21
160.0
 31
0.0
  0
LINE
  5
93
330
1F
100
AcDbEntity
  8
0
  6
Continuous
 62
     7
370
    35
100
AcDbLine
 10
20.0
 20
210.0
 30
0.0
 11
15.0
 21
210.0
 31
0.0
  0
LINE
  5
94
330
1F
100
AcDbEntity
  8
0
  6
Continuous
 62
     7
370
    35
100
AcDbLine
 10
584.0
 20
210.0
 30
0.0
 11
589.0
 21
210.0
 31
0.0
  0
LINE
  5
95
330
1F
100
AcDbEntity
  8
0
  6
Continuous
 62
     7
370
    35
100
AcDbLine
 10
20.0
 20
260.0
 30
0.0
 11
15.0
 21
260.0
 31
0.0
  0
LINE
  5
96
330
1F
100
AcDbEntity
  8
0
  6
Continuous
 62
     7
370
    35
100
AcDbLine
 10
584.0
 20
260.0
 30
0.0
 11
589.0
 21
260.0
 31
0.0
  0
LINE
  5
97
330
1F
100
AcDbEntity
  8
0
  6
Continuous
 62
     7
370
    35
100
AcDbLine
 10
20.0
 20
310.0
 30
0.0
 11
15.0
 21
310.0
 31
0.0
  0
LINE
  5
98
330
1F
100
AcDbEntity
  8
0
  6
Continuous
 62
     7
370
    35
100
AcDbLine
 10
584.0
 20
310.0
 30
0.0
 11
589.0
 21
310.0
 31
0.0
  0
LINE
  5
99
330
1F
100
AcDbEntity
  8
0
  6
Continuous
 62
     7
370
    35
100
AcDbLine
 10
20.0
 20
360.0
 30
0.0
 11
15.0
 21
360.0
 31
0.0
  0
LINE
  5
9A
330
1F
100
AcDbEntity
  8
0
  6
Continuous
 62
     7
370
    35
100
AcDbLine
 10
584.0
 20
360.0
 30
0.0
 11
589.0
 21
360.0
 31
0.0
  0
LINE
  5
9B
330
1F
100
AcDbEntity
  8
0
  6
Continuous
 62
     7
370
    35
100
AcDbLine
 10
52.0
 20
410.0
 30
0.0
 11
52.0
 21
415.0
 31
0.0
  0
LINE
  5
9C
330
1F
100
AcDbEntity
  8
0
  6
Continuous
 62
     7
370
    35
100
AcDbLine
 10
52.0
 20
10.0
 30
0.0
 11
52.0
 21
5.0
 31
0.0
  0
LINE
  5
9D
330
1F
100
AcDbEntity
  8
0
  6
Continuous
 62
     7
370
    35
100
AcDbLine
 10
102.0
 20
410.0
 30
0.0
 11
102.0
 21
415.0
 31
0.0
  0
LINE
  5
9E
330
1F
100
AcDbEntity
  8
0
  6
Continuous
 62
     7
370
    35
100
AcDbLine
 10
102.0
 20
10.0
 30
0.0
 11
102.0
 21
5.0
 31
0.0
  0
LINE
  5
9F
330
1F
100
AcDbEntity
  8
0
  6
Continuous
 62
     7
370
    35
100
AcDbLine
 10
152.0
 20
410.0
 30
0.0
 11
152.0
 21
415.0
 31
0.0
  0
LINE
  5
A0
330
1F
100
AcDbEntity
  8
0
  6
Continuous
 62
     7
370
    35
100
AcDbLine
 10
152.0
 20
10.0
 30
0.0
 11
152.0
 21
5.0
 31
0.0
  0
LINE
  5
A1
330
1F
100
AcDbEntity
  8
0
  6
Continuous
 62
     7
370
    35
100
AcDbLine
 10
202.0
 20
410.0
 30
0.0
 11
202.0
 21
415.0
 31
0.0
  0
LINE
  5
A2
330
1F
100
AcDbEntity
  8
0
  6
Continuous
 62
     7
370
    35
100
AcDbLine
 10
202.0
 20
10.0
 30
0.0
 11
202.0
 21
5.0
 31
0.0
  0
LINE
  5
A3
330
1F
100
AcDbEntity
  8
0
  6
Continuous
 62
     7
370
    35
100
AcDbLine
 10
252.0
 20
410.0
 30
0.0
 11
252.0
 21
415.0
 31
0.0
  0
LINE
  5
A4
330
1F
100
AcDbEntity
  8
0
  6
Continuous
 62
     7
370
    35
100
AcDbLine
 10
252.0
 20
10.0
 30
0.0
 11
252.0
 21
5.0
 31
0.0
  0
LINE
  5
A5
330
1F
100
AcDbEntity
  8
0
  6
Continuous
 62
     7
370
    35
100
AcDbLine
 10
302.0
 20
410.0
 30
0.0
 11
302.0
 21
415.0
 31
0.0
  0
LINE
  5
A6
330
1F
100
AcDbEntity
  8
0
  6
Continuous
 62
     7
370
    35
100
AcDbLine
 10
302.0
 20
10.0
 30
0.0
 11
302.0
 21
5.0
 31
0.0
  0
LINE
  5
A7
330
1F
100
AcDbEntity
  8
0
  6
Continuous
 62
     7
370
    35
100
AcDbLine
 10
352.0
 20
410.0
 30
0.0
 11
352.0
 21
415.0
 31
0.0
  0
LINE
  5
A8
330
1F
100
AcDbEntity
  8
0
  6
Continuous
 62
     7
370
    35
100
AcDbLine
 10
352.0
 20
10.0
 30
0.0
 11
352.0
 21
5.0
 31
0.0
  0
LINE
  5
A9
330
1F
100
AcDbEntity
  8
0
  6
Continuous
 62
     7
370
    35
100
AcDbLine
 10
402.0
 20
410.0
 30
0.0
 11
402.0
 21
415.0
 31
0.0
  0
LINE
  5
AA
330
1F
100
AcDbEntity
  8
0
  6
Continuous
 62
     7
370
    35
100
AcDbLine
 10
402.0
 20
10.0
 30
0.0
 11
402.0
 21
5.0
 31
0.0
  0
LINE
  5
AB
330
1F
100
AcDbEntity
  8
0
  6
Continuous
 62
     7
370
    35
100
AcDbLine
 10
452.0
 20
410.0
 30
0.0
 11
452.0
 21
415.0
 31
0.0
  0
LINE
  5
AC
330
1F
100
AcDbEntity
  8
0
  6
Continuous
 62
     7
370
    35
100
AcDbLine
 10
452.0
 20
10.0
 30
0.0
 11
452.0
 21
5.0
 31
0.0
  0
LINE
  5
AD
330
1F
100
AcDbEntity
  8
0
  6
Continuous
 62
     7
370
    35
100
AcDbLine
 10
502.0
 20
410.0
 30
0.0
 11
502.0
 21
415.0
 31
0.0
  0
LINE
  5
AE
330
1F
100
AcDbEntity
  8
0
  6
Continuous
 62
     7
370
    35
100
AcDbLine
 10
502.0
 20
10.0
 30
0.0
 11
502.0
 21
5.0
 31
0.0
  0
LINE
  5
AF
330
1F
100
AcDbEntity
  8
0
  6
Continuous
 62
     7
370
    35
100
AcDbLine
 10
552.0
 20
410.0
 30
0.0
 11
552.0
 21
415.0
 31
0.0
  0
LINE
  5
B0
330
1F
100
AcDbEntity
  8
0
  6
Continuous
 62
     7
370
    35
100
AcDbLine
 10
552.0
 20
10.0
 30
0.0
 11
552.0
 21
5.0
 31
0.0
  0
LINE
  5
B1
330
1F
100
AcDbEntity
  8
0
  6
Continuous
 62
     7
370
    70
100
AcDbLine
 10
20.0
 20
10.0
 30
0.0
 11
20.0
 21
410.0
 31
0.0
  0
LINE
  5
B2
330
1F
100
AcDbEntity
  8
0
  6
Continuous
 62
     7
370
    70
100
AcDbLine
 10
20.0
 20
410.0
 30
0.0
 11
584.0
 21
410.0
 31
0.0
  0
LINE
  5
B3
330
1F
100
AcDbEntity
  8
0
  6
Continuous
 62
     7
370
    70
100
AcDbLine
 10
584.0
 20
410.0
 30
0.0
 11
584.0
 21
10.0
 31
0.0
  0
LINE
  5
B4
330
1F
100
AcDbEntity
  8
0
  6
Continuous
 62
     7
370
    70
100
AcDbLine
 10
584.0
 20
10.0
 30
0.0
 11
20.0
 21
10.0
 31
0.0
  0
LINE
  5
B5
330
1F
100
AcDbEntity
  8
0
  6
Continuous
 62
     7
370
    70
100
AcDbLine
 10
15.0
 20
5.0
 30
0.0
 11
15.0
 21
415.0
 31
0.0
  0
LINE
  5
B6
330
1F
100
AcDbEntity
  8
0
  6
Continuous
 62
     7
370
    70
100
AcDbLine
 10
15.0
 20
415.0
 30
0.0
 11
589.0
 21
415.0
 31
0.0
  0
LINE
  5
B7
330
1F
100
AcDbEntity
  8
0
  6
Continuous
 62
     7
370
    70
100
AcDbLine
 10
589.0
 20
415.0
 30
0.0
 11
589.0
 21
5.0
 31
0.0
  0
LINE
  5
B8
330
1F
100
AcDbEntity
  8
0
  6
Continuous
 62
     7
370
    70
100
AcDbLine
 10
589.0
 20
5.0
 30
0.0
 11
15.0
 21
5.0
 31
0.0
  0
LINE
  5
B9
330
1F
100
AcDbEntity
  8
0
  6
Continuous
 62
     7
370
    35
100
AcDbLine
 10
14.999
 20
210.0
 30
0.0
 11
25.001
 21
210.0
 31
0.0
  0
LINE
  5
BA
330
1F
100
AcDbEntity
  8
0
  6
Continuous
 62
     7
370
    35
100
AcDbLine
 10
302.0
 20
415.001
 30
0.0
 11
302.0
 21
404.999
 31
0.0
  0
LINE
  5
BB
330
1F
100
AcDbEntity
  8
0
  6
Continuous
 62
     7
370
    35
100
AcDbLine
 10
589.001
 20
210.0
 30
0.0
 11
578.999
 21
210.0
 31
0.0
  0
LINE
  5
BC
330
1F
100
AcDbEntity
  8
0
  6
Continuous
 62
     7
370
    35
100
AcDbLine
 10
302.0
 20
4.999
 30
0.0
 11
302.0
 21
15.001
 31
0.0
  0
MTEXT
  5
BE
330
1F
100
AcDbEntity
  8
0
  6
Continuous
 62
     7
370
     0
100
AcDbMText
 10
404.6433628979
 20
42.3847813173
 30
0.0
 40
1.5
 41
0.0
 71
     1
 72
     1
  1
DRAWN
  7
SLDTEXTSTYLE0
 73
     1
 44
1.0
  0
MTEXT
  5
C0
330
1F
100
AcDbEntity
  8
0
  6
Continuous
 62
     7
370
     0
100
AcDbMText
 10
404.9392221937
 20
38.1618530186
 30
0.0
 40
1.5
 41
0.0
 71
     1
 72
     1
  1
CHK'D
  7
SLDTEXTSTYLE1
 73
     1
 44
1.0
  0
MTEXT
  5
C1
330
1F
100
AcDbEntity
  8
0
  6
Continuous
 62
     7
370
     0
100
AcDbMText
 10
404.4017224083
 20
34.0658666243
 30
0.0
 40
1.5
 41
0.0
 71
     1
 72
     1
  1
APPV'D
  7
SLDTEXTSTYLE1
 73
     1
 44
1.0
  0
MTEXT
  5
C2
330
1F
100
AcDbEntity
  8
0
  6
Continuous
 62
     7
370
     0
100
AcDbMText
 10
405.1240107386
 20
29.7157844608
 30
0.0
 40
1.5
 41
0.0
 71
     1
 72
     1
  1
MFG
  7
SLDTEXTSTYLE1
 73
     1
 44
1.0
  0
MTEXT
  5
C3
330
1F
100
AcDbEntity
  8
0
  6
Continuous
 62
     7
370
     0
100
AcDbMText
 10
405.509036604
 20
25.504662132
 30
0.0
 40
1.5
 41
0.0
 71
     1
 72
     1
  1
Q.A
  7
SLDTEXTSTYLE1
 73
     1
 44
1.0
  0
INSERT
  5
CD
330
1F
100
AcDbEntity
  8
0
  6
Continuous
 62
     7
370
     0
100
AcDbBlockReference
  2
SW_NOTE_0
 10
404.5936687456
 20
61.9873698743
 30
0.0
  0
MTEXT
  5
CE
330
1F
100
AcDbEntity
  8
0
  6
Continuous
 62
     7
370
     0
100
AcDbMText
 10
438.3712921668
 20
63.9192719951
 30
0.0
 40
1.5
 41
0.0
 71
     1
 72
     1
  1
FINISH:
  7
SLDTEXTSTYLE1
 73
     1
 44
1.0
  0
INSERT
  5
D5
330
1F
100
AcDbEntity
  8
0
  6
Continuous
 62
     7
370
     0
100
AcDbBlockReference
  2
SW_NOTE_0_1
 10
485.3092156863
 20
62.069489643
 30
0.0
  0
MTEXT
  5
D6
330
1F
100
AcDbEntity
  8
0
  6
Continuous
 62
     7
370
     0
100
AcDbMText
 10
418.3222392177
 20
46.5014826335
 30
0.0
 40
1.5
 41
0.0
 71
     1
 72
     1
  1
NAME
  7
SLDTEXTSTYLE1
 73
     1
 44
1.0
  0
MTEXT
  5
D7
330
1F
100
AcDbEntity
  8
0
  6
Continuous
 62
     7
370
     0
100
AcDbMText
 10
434.0335875632
 20
46.5617563795
 30
0.0
 40
1.5
 41
0.0
 71
     1
 72
     1
  1
SIGNATURE
  7
SLDTEXTSTYLE1
 73
     1
 44
1.0
  0
MTEXT
  5
D8
330
1F
100
AcDbEntity
  8
0
  6
Continuous
 62
     7
370
     0
100
AcDbMText
 10
451.2147019657
 20
46.5761792212
 30
0.0
 40
1.5
 41
0.0
 71
     1
 72
     1
  1
DATE
  7
SLDTEXTSTYLE1
 73
     1
 44
1.0
  0
MTEXT
  5
D9
330
1F
100
AcDbEntity
  8
0
  6
Continuous
 62
     7
370
     0
100
AcDbMText
 10
459.6458623088
 20
25.9860562892
 30
0.0
 40
1.5
 41
0.0
 71
     1
 72
     1
  1
MATERIAL:
  7
SLDTEXTSTYLE1
 73
     1
 44
1.0
  0
MTEXT
  5
DA
330
1F
100
AcDbEntity
  8
0
  6
Continuous
 62
     7
370
     0
100
AcDbMText
 10
516.6146405229
 20
62.5329935751
 30
0.0
 40
1.5
 41
0.0
 71
     1
 72
     1
  1
DO NOT SCALE DRAWING
  7
SLDTEXTSTYLE1
 73
     1
 44
1.0
  0
MTEXT
  5
DB
330
1F
100
AcDbEntity
  8
0
  6
Continuous
 62
     7
370
     0
100
AcDbMText
 10
557.3275816993
 20
62.3349086805
 30
0.0
 40
1.5
 41
0.0
 71
     1
 72
     1
  1
REVISION
  7
SLDTEXTSTYLE1
 73
     1
 44
1.0
  0
MTEXT
  5
DC
330
1F
100
AcDbEntity
  8
0
  6
Continuous
 62
     7
370
     0
100
AcDbMText
 10
504.090160639
 20
46.5761792212
 30
0.0
 40
1.5
 41
0.0
 71
     1
 72
     1
  1
TITLE:
  7
SLDTEXTSTYLE1
 73
     1
 44
1.0
  0
MTEXT
  5
DD
330
1F
100
AcDbEntity
  8
0
  6
Continuous
 62
     7
370
     0
100
AcDbMText
 10
503.9530022162
 20
25.9860562892
 30
0.0
 40
1.5
 41
0.0
 71
     1
 72
     1
  1
DWG NO.
  7
SLDTEXTSTYLE1
 73
     1
 44
1.0
  0
MTEXT
  5
DE
330
1F
100
AcDbEntity
  8
0
  6
Continuous
 62
     7
370
     0
100
AcDbMText
 10
504.0739661175
 20
12.9000872745
 30
0.0
 40
1.5
 41
0.0
 71
     1
 72
     1
  1
SCALE:1:1
  7
SLDTEXTSTYLE1
 73
     1
 44
1.0
  0
MTEXT
  5
E0
330
1F
100
AcDbEntity
  8
0
  6
Continuous
 62
     7
370
     0
100
AcDbMText
 10
548.4782944278
 20
12.9000872745
 30
0.0
 40
1.5
 41
0.0
 71
     1
 72
     1
  1
SHEET 1 OF 1
  7
SLDTEXTSTYLE2
 73
     1
 44
1.0
  0
MTEXT
  5
E1
330
1F
100
AcDbEntity
  8
0
  6
Continuous
 62
     7
370
     0
100
AcDbMText
 10
574.8711564346
 20
24.406388569
 30
0.0
 40
2.9104166667
 41
0.0
 71
     1
 72
     1
  1
A2
  7
SLDTEXTSTYLE1
 73
     1
 44
1.0
  0
MTEXT
  5
E2
330
1F
100
AcDbEntity
  8
0
  6
Continuous
 62
     7
370
     0
100
AcDbMText
 10
481.1993869778
 20
21.4855658078
 30
0.0
 40
2.38125
 41
0.0
 71
     2
 72
     1
  1
PE High Density
  7
SLDTEXTSTYLE1
 73
     1
 44
1.0
  0
MTEXT
  5
E3
330
1F
100
AcDbEntity
  8
0
  6
Continuous
 62
     7
370
     0
100
AcDbMText
 10
459.6178111281
 20
12.9493119036
 30
0.0
 40
1.4986
 41
0.0
 71
     1
 72
     1
  1
WEIGHT: 57.21
  7
SLDTEXTSTYLE1
 73
     1
 44
1.0
  0
MTEXT
  5
E4
330
1F
100
AcDbEntity
  8
0
  6
Continuous
 62
     7
370
     0
100
AcDbMText
 10
538.8471572562
 20
23.6069109673
 30
0.0
 40
6.35
 41
0.0
 71
     2
 72
     1
  1
FRONT_IP_PANEL_V1
  7
SLDTEXTSTYLE1
 73
     1
 44
1.0
  0
INSERT
  5
EA
330
1F
100
AcDbEntity
  8
0
  6
Continuous
 62
     7
370
     0
100
AcDbBlockReference
  2
SW_NOTE_0_2
 10
508.7332467139
 20
36.3861107435
 30
0.0
  0
MTEXT
  5
EB
330
1F
100
AcDbEntity
  8
0
  6
Continuous
 62
     7
370
     0
100
AcDbMText
 10
17.3396881428
 20
37.56015409
 30
0.0
 40
3.96875
 41
0.0
 71
     2
 72
     1
  1
A
  7
SLDTEXTSTYLE1
 73
     1
 44
1.0
  0
MTEXT
  5
EC
330
1F
100
AcDbEntity
  8
0
  6
Continuous
 62
     7
370
     0
100
AcDbMText
 10
586.3396881428
 20
37.56015409
 30
0.0
 40
3.96875
 41
0.0
 71
     2
 72
     1
  1
A
  7
SLDTEXTSTYLE1
 73
     1
 44
1.0
  0
MTEXT
  5
ED
330
1F
100
AcDbEntity
  8
0
  6
Continuous
 62
     7
370
     0
100
AcDbMText
 10
17.4706018241
 20
87.56015409
 30
0.0
 40
3.96875
 41
0.0
 71
     2
 72
     1
  1
B
  7
SLDTEXTSTYLE1
 73
     1
 44
1.0
  0
MTEXT
  5
EE
330
1F
100
AcDbEntity
  8
0
  6
Continuous
 62
     7
370
     0
100
AcDbMText
 10
586.4706018241
 20
87.56015409
 30
0.0
 40
3.96875
 41
0.0
 71
     2
 72
     1
  1
B
  7
SLDTEXTSTYLE1
 73
     1
 44
1.0
  0
MTEXT
  5
EF
330
1F
100
AcDbEntity
  8
0
  6
Continuous
 62
     7
370
     0
100
AcDbMText
 10
17.458658902
 20
137.56015409
 30
0.0
 40
3.96875
 41
0.0
 71
     2
 72
     1
  1
C
  7
SLDTEXTSTYLE1
 73
     1
 44
1.0
  0
MTEXT
  5
F0
330
1F
100
AcDbEntity
  8
0
  6
Continuous
 62
     7
370
     0
100
AcDbMText
 10
586.458658902
 20
137.56015409
 30
0.0
 40
3.96875
 41
0.0
 71
     2
 72
     1
  1
C
  7
SLDTEXTSTYLE1
 73
     1
 44
1.0
  0
MTEXT
  5
F1
330
1F
100
AcDbEntity
  8
0
  6
Continuous
 62
     7
370
     0
100
AcDbMText
 10
17.4526872821
 20
187.56015409
 30
0.0
 40
3.96875
 41
0.0
 71
     2
 72
     1
  1
D
  7
SLDTEXTSTYLE1
 73
     1
 44
1.0
  0
MTEXT
  5
F2
330
1F
100
AcDbEntity
  8
0
  6
Continuous
 62
     7
370
     0
100
AcDbMText
 10
586.4526872821
 20
187.56015409
 30
0.0
 40
3.96875
 41
0.0
 71
     2
 72
     1
  1
D
  7
SLDTEXTSTYLE1
 73
     1
 44
1.0
  0
MTEXT
  5
F3
330
1F
100
AcDbEntity
  8
0
  6
Continuous
 62
     7
370
     0
100
AcDbMText
 10
17.5078089051
 20
237.56015409
 30
0.0
 40
3.96875
 41
0.0
 71
     2
 72
     1
  1
E
  7
SLDTEXTSTYLE1
 73
     1
 44
1.0
  0
MTEXT
  5
F4
330
1F
100
AcDbEntity
  8
0
  6
Continuous
 62
     7
370
     0
100
AcDbMText
 10
586.5078089051
 20
237.56015409
 30
0.0
 40
3.96875
 41
0.0
 71
     2
 72
     1
  1
E
  7
SLDTEXTSTYLE1
 73
     1
 44
1.0
  0
MTEXT
  5
F5
330
1F
100
AcDbEntity
  8
0
  6
Continuous
 62
     7
370
     0
100
AcDbMText
 10
17.4577402091
 20
287.56015409
 30
0.0
 40
3.96875
 41
0.0
 71
     2
 72
     1
  1
F
  7
SLDTEXTSTYLE1
 73
     1
 44
1.0
  0
MTEXT
  5
F6
330
1F
100
AcDbEntity
  8
0
  6
Continuous
 62
     7
370
     0
100
AcDbMText
 10
586.4577402091
 20
287.56015409
 30
0.0
 40
3.96875
 41
0.0
 71
     2
 72
     1
  1
F
  7
SLDTEXTSTYLE1
 73
     1
 44
1.0
  0
MTEXT
  5
F7
330
1F
100
AcDbEntity
  8
0
  6
Continuous
 62
     7
370
     0
100
AcDbMText
 10
17.4866788853
 20
337.56015409
 30
0.0
 40
3.96875
 41
0.0
 71
     2
 72
     1
  1
G
  7
SLDTEXTSTYLE1
 73
     1
 44
1.0
  0
MTEXT
  5
F8
330
1F
100
AcDbEntity
  8
0
  6
Continuous
 62
     7
370
     0
100
AcDbMText
 10
586.4866788853
 20
337.56015409
 30
0.0
 40
3.96875
 41
0.0
 71
     2
 72
     1
  1
G
  7
SLDTEXTSTYLE1
 73
     1
 44
1.0
  0
MTEXT
  5
F9
330
1F
100
AcDbEntity
  8
0
  6
Continuous
 62
     7
370
     0
100
AcDbMText
 10
17.4903537836
 20
387.56015409
 30
0.0
 40
3.96875
 41
0.0
 71
     2
 72
     1
  1
H
  7
SLDTEXTSTYLE1
 73
     1
 44
1.0
  0
MTEXT
  5
FA
330
1F
100
AcDbEntity
  8
0
  6
Continuous
 62
     7
370
     0
100
AcDbMText
 10
586.4903537836
 20
387.56015409
 30
0.0
 40
3.96875
 41
0.0
 71
     2
 72
     1
  1
H
  7
SLDTEXTSTYLE1
 73
     1
 44
1.0
  0
MTEXT
  5
FB
330
1F
100
AcDbEntity
  8
0
  6
Continuous
 62
     7
370
     0
100
AcDbMText
 10
35.9200738929
 20
10.06015409
 30
0.0
 40
3.96875
 41
0.0
 71
     2
 72
     1
  1
12
  7
SLDTEXTSTYLE1
 73
     1
 44
1.0
  0
MTEXT
  5
FC
330
1F
100
AcDbEntity
  8
0
  6
Continuous
 62
     7
370
     0
100
AcDbMText
 10
35.9200738929
 20
415.06015409
 30
0.0
 40
3.96875
 41
0.0
 71
     2
 72
     1
  1
12
  7
SLDTEXTSTYLE1
 73
     1
 44
1.0
  0
MTEXT
  5
FD
330
1F
100
AcDbEntity
  8
0
  6
Continuous
 62
     7
370
     0
100
AcDbMText
 10
76.9200738929
 20
10.06015409
 30
0.0
 40
3.96875
 41
0.0
 71
     2
 72
     1
  1
11
  7
SLDTEXTSTYLE1
 73
     1
 44
1.0
  0
MTEXT
  5
FE
330
1F
100
AcDbEntity
  8
0
  6
Continuous
 62
     7
370
     0
100
AcDbMText
 10
76.9200738929
 20
415.06015409
 30
0.0
 40
3.96875
 41
0.0
 71
     2
 72
     1
  1
11
  7
SLDTEXTSTYLE1
 73
     1
 44
1.0
  0
MTEXT
  5
FF
330
1F
100
AcDbEntity
  8
0
  6
Continuous
 62
     7
370
     0
100
AcDbMText
 10
126.9200738929
 20
10.06015409
 30
0.0
 40
3.96875
 41
0.0
 71
     2
 72
     1
  1
10
  7
SLDTEXTSTYLE1
 73
     1
 44
1.0
  0
MTEXT
  5
100
330
1F
100
AcDbEntity
  8
0
  6
Continuous
 62
     7
370
     0
100
AcDbMText
 10
126.9200738929
 20
415.06015409
 30
0.0
 40
3.96875
 41
0.0
 71
     2
 72
     1
  1
10
  7
SLDTEXTSTYLE1
 73
     1
 44
1.0
  0
MTEXT
  5
101
330
1F
100
AcDbEntity
  8
0
  6
Continuous
 62
     7
370
     0
100
AcDbMText
 10
176.9600369465
 20
10.06015409
 30
0.0
 40
3.96875
 41
0.0
 71
     2
 72
     1
  1
9
  7
SLDTEXTSTYLE1
 73
     1
 44
1.0
  0
MTEXT
  5
102
330
1F
100
AcDbEntity
  8
0
  6
Continuous
 62
     7
370
     0
100
AcDbMText
 10
176.9600369465
 20
415.06015409
 30
0.0
 40
3.96875
 41
0.0
 71
     2
 72
     1
  1
9
  7
SLDTEXTSTYLE1
 73
     1
 44
1.0
  0
MTEXT
  5
103
330
1F
100
AcDbEntity
  8
0
  6
Continuous
 62
     7
370
     0
100
AcDbMText
 10
226.9600369465
 20
10.06015409
 30
0.0
 40
3.96875
 41
0.0
 71
     2
 72
     1
  1
8
  7
SLDTEXTSTYLE1
 73
     1
 44
1.0
  0
MTEXT
  5
104
330
1F
100
AcDbEntity
  8
0
  6
Continuous
 62
     7
370
     0
100
AcDbMText
 10
226.9600369465
 20
415.06015409
 30
0.0
 40
3.96875
 41
0.0
 71
     2
 72
     1
  1
8
  7
SLDTEXTSTYLE1
 73
     1
 44
1.0
  0
MTEXT
  5
105
330
1F
100
AcDbEntity
  8
0
  6
Continuous
 62
     7
370
     0
100
AcDbMText
 10
276.9600369465
 20
10.06015409
 30
0.0
 40
3.96875
 41
0.0
 71
     2
 72
     1
  1
7
  7
SLDTEXTSTYLE1
 73
     1
 44
1.0
  0
MTEXT
  5
106
330
1F
100
AcDbEntity
  8
0
  6
Continuous
 62
     7
370
     0
100
AcDbMText
 10
276.9600369465
 20
415.06015409
 30
0.0
 40
3.96875
 41
0.0
 71
     2
 72
     1
  1
7
  7
SLDTEXTSTYLE1
 73
     1
 44
1.0
  0
MTEXT
  5
107
330
1F
100
AcDbEntity
  8
0
  6
Continuous
 62
     7
370
     0
100
AcDbMText
 10
326.9600369465
 20
10.06015409
 30
0.0
 40
3.96875
 41
0.0
 71
     2
 72
     1
  1
6
  7
SLDTEXTSTYLE1
 73
     1
 44
1.0
  0
MTEXT
  5
108
330
1F
100
AcDbEntity
  8
0
  6
Continuous
 62
     7
370
     0
100
AcDbMText
 10
326.9600369465
 20
415.06015409
 30
0.0
 40
3.96875
 41
0.0
 71
     2
 72
     1
  1
6
  7
SLDTEXTSTYLE1
 73
     1
 44
1.0
  0
MTEXT
  5
109
330
1F
100
AcDbEntity
  8
0
  6
Continuous
 62
     7
370
     0
100
AcDbMText
 10
376.9600369465
 20
10.06015409
 30
0.0
 40
3.96875
 41
0.0
 71
     2
 72
     1
  1
5
  7
SLDTEXTSTYLE1
 73
     1
 44
1.0
  0
MTEXT
  5
10A
330
1F
100
AcDbEntity
  8
0
  6
Continuous
 62
     7
370
     0
100
AcDbMText
 10
376.9600369465
 20
415.06015409
 30
0.0
 40
3.96875
 41
0.0
 71
     2
 72
     1
  1
5
  7
SLDTEXTSTYLE1
 73
     1
 44
1.0
  0
MTEXT
  5
10B
330
1F
100
AcDbEntity
  8
0
  6
Continuous
 62
     7
370
     0
100
AcDbMText
 10
426.9600369465
 20
10.06015409
 30
0.0
 40
3.96875
 41
0.0
 71
     2
 72
     1
  1
4
  7
SLDTEXTSTYLE1
 73
     1
 44
1.0
  0
MTEXT
  5
10C
330
1F
100
AcDbEntity
  8
0
  6
Continuous
 62
     7
370
     0
100
AcDbMText
 10
426.9600369465
 20
415.06015409
 30
0.0
 40
3.96875
 41
0.0
 71
     2
 72
     1
  1
4
  7
SLDTEXTSTYLE1
 73
     1
 44
1.0
  0
MTEXT
  5
10D
330
1F
100
AcDbEntity
  8
0
  6
Continuous
 62
     7
370
     0
100
AcDbMText
 10
476.9600369465
 20
10.06015409
 30
0.0
 40
3.96875
 41
0.0
 71
     2
 72
     1
  1
3
  7
SLDTEXTSTYLE1
 73
     1
 44
1.0
  0
MTEXT
  5
10E
330
1F
100
AcDbEntity
  8
0
  6
Continuous
 62
     7
370
     0
100
AcDbMText
 10
476.9600369465
 20
415.06015409
 30
0.0
 40
3.96875
 41
0.0
 71
     2
 72
     1
  1
3
  7
SLDTEXTSTYLE1
 73
     1
 44
1.0
  0
MTEXT
  5
10F
330
1F
100
AcDbEntity
  8
0
  6
Continuous
 62
     7
370
     0
100
AcDbMText
 10
526.9600369465
 20
10.06015409
 30
0.0
 40
3.96875
 41
0.0
 71
     2
 72
     1
  1
2
  7
SLDTEXTSTYLE1
 73
     1
 44
1.0
  0
MTEXT
  5
110
330
1F
100
AcDbEntity
  8
0
  6
Continuous
 62
     7
370
     0
100
AcDbMText
 10
526.9600369465
 20
415.06015409
 30
0.0
 40
3.96875
 41
0.0
 71
     2
 72
     1
  1
2
  7
SLDTEXTSTYLE1
 73
     1
 44
1.0
  0
MTEXT
  5
111
330
1F
100
AcDbEntity
  8
0
  6
Continuous
 62
     7
370
     0
100
AcDbMText
 10
567.9600369465
 20
10.06015409
 30
0.0
 40
3.96875
 41
0.0
 71
     2
 72
     1
  1
1
  7
SLDTEXTSTYLE1
 73
     1
 44
1.0
  0
MTEXT
  5
112
330
1F
100
AcDbEntity
  8
0
  6
Continuous
 62
     7
370
     0
100
AcDbMText
 10
567.9600369465
 20
415.06015409
 30
0.0
 40
3.96875
 41
0.0
 71
     2
 72
     1
  1
1
  7
SLDTEXTSTYLE1
 73
     1
 44
1.0
  0
SPLINE
  5
113
330
1F
100
AcDbEntity
  8
0
  6
Continuous
 62
     7
370
    25
100
AcDbSpline
210
0.0
220
0.0
230
1.0
 70
     8
 71
     3
 72
    23
 73
    19
 74
     0
 42
0.000000001
 43
0.00000001
 40
0.0
 40
0.0
 40
0.0
 40
0.0
 40
0.0716681496796065
 40
0.1389132862742057
 40
0.2011845700265604
 40
0.2591244282905451
 40
0.3122550414262344
 40
0.3606815096231089
 40
0.4050861433286472
 40
0.4451016585907123
 40
0.5187777804882608
 40
0.5894615790332004
 40
0.6584622419857178
 40
0.727283218368369
 40
0.7963224869047183
 40
0.8631748932078803
 40
0.930949380987856
 40
1.0
 40
1.0
 40
1.0
 40
1.0
 10
347.0427656070369
 20
209.1032620684685
 30
0.0
 10
347.0699073566303
 20
209.1032500609322
 30
0.0
 10
347.1225157977315
 20
209.103226786907
 30
0.0
 10
347.1986256865247
 20
209.1068497124994
 30
0.0
 10
347.2694917878449
 20
209.1109711511912
 30
0.0
 10
347.3348430415923
 20
209.1172752003567
 30
0.0
 10
347.3947086420665
 20
209.1253996368508
 30
0.0
 10
347.4490586669176
 20
209.1355623439815
 30
0.0
 10
347.4979818354239
 20
209.1474024293827
 30
0.0
 10
347.5550397952788
 20
209.1657281899388
 30
0.0
 10
347.6187543630097
 20
209.1947622207938
 30
0.0
 10
347.6879979016125
 20
209.2370037803238
 30
0.0
 10
347.7469643080004
 20
209.2901343384257
 30
0.0
 10
347.7967826545199
 20
209.3508888306855
 30
0.0
 10
347.8368143530726
 20
209.4176874278454
 30
0.0
 10
347.8650374309332
 20
209.4897294199201
 30
0.0
 10
347.882946646441
 20
209.565196083827
 30
0.0
 10
347.885058969813
 20
209.6170647959433
 30
0.0
 10
347.886124982037
 20
209.6432410348147
 30
0.0
  0
LINE
  5
114
330
1F
100
AcDbEntity
  8
0
  6
Continuous
 62
     7
370
    25
100
AcDbLine
 10
346.4614451181
 20
209.1077137033
 30
0.0
 11
347.0427654933
 21
209.1032619814
 31
0.0
  0
LINE
  5
115
330
1F
100
AcDbEntity
  8
0
  6
Continuous
 62
     7
370
    25
100
AcDbLine
 10
346.4614451181
 20
210.166048188
 30
0.0
 11
346.4614451181
 21
209.1077137033
 31
0.0
  0
LINE
  5
116
330
1F
100
AcDbEntity
  8
0
  6
Continuous
 62
     7
370
    25
100
AcDbLine
 10
347.0567576837
 20
210.166048188
 30
0.0
 11
346.4614451181
 21
210.166048188
 31
0.0
  0
SPLINE
  5
117
330
1F
100
AcDbEntity
  8
0
  6
Continuous
 62
     7
370
    25
100
AcDbSpline
210
0.0
220
0.0
230
1.0
 70
     8
 71
     3
 72
    23
 73
    19
 74
     0
 42
0.000000001
 43
0.00000001
 40
0.0
 40
0.0
 40
0.0
 40
0.0
 40
0.0688142958243097
 40
0.1363648245522162
 40
0.204019353511245
 40
0.27306373862461
 40
0.3429133195614915
 40
0.4109654441389578
 40
0.479168766513445
 40
0.5493080065097848
 40
0.5876515764176474
 40
0.6306466687627882
 40
0.6788787856966508
 40
0.7319342992295822
 40
0.7911114229480452
 40
0.8552831895130799
 40
0.9250859386773831
 40
1.0
 40
1.0
 40
1.0
 40
1.0
 10
347.886124982037
 20
209.6432410348147
 30
0.0
 10
347.8850344864781
 20
209.6687739981266
 30
0.0
 10
347.8828735221933
 20
209.7193710146422
 30
0.0
 10
347.8652307107441
 20
209.7934445904031
 30
0.0
 10
347.8353953433707
 20
209.863355323736
 30
0.0
 10
347.7951887418247
 20
209.9288188208356
 30
0.0
 10
347.7462037941087
 20
209.9882418812178
 30
0.0
 10
347.6887654925929
 20
210.0390846557771
 30
0.0
 10
347.6244443512782
 20
210.0810395273065
 30
0.0
 10
347.564326907059
 20
210.1078495724852
 30
0.0
 10
347.510593014298
 20
210.1242868679297
 30
0.0
 10
347.4639389655466
 20
210.1358539951011
 30
0.0
 10
347.4112235536154
 20
210.1451471919162
 30
0.0
 10
347.3521908161603
 20
210.1525930757101
 30
0.0
 10
347.2870927653769
 20
210.1589929179929
 30
0.0
 10
347.2156002461725
 20
210.1633034600613
 30
0.0
 10
347.1381875955068
 20
210.1658560367861
 30
0.0
 10
347.0845328793546
 20
210.1659822102706
 30
0.0
 10
347.0567579948575
 20
210.1660475251993
 30
0.0
  0
SPLINE
  5
118
330
1F
100
AcDbEntity
  8
0
  6
Continuous
 62
     7
370
    25
100
AcDbSpline
210
0.0
220
0.0
230
1.0
 70
     8
 71
     3
 72
    23
 73
    19
 74
     0
 42
0.000000001
 43
0.00000001
 40
0.0
 40
0.0
 40
0.0
 40
0.0
 40
0.0716681496796064
 40
0.1389132862742058
 40
0.2011845700265602
 40
0.2591244282905448
 40
0.312255041426234
 40
0.3606815096231084
 40
0.4050861433286467
 40
0.4451016585907118
 40
0.5187777804882603
 40
0.5894615790331998
 40
0.6584622419857171
 40
0.7272832183683683
 40
0.7963224869047175
 40
0.8631748932078795
 40
0.9309493809878565
 40
1.0
 40
1.0
 40
1.0
 40
1.0
 10
337.3549450942164
 20
209.1032620684685
 30
0.0
 10
337.3820868438099
 20
209.1032500609322
 30
0.0
 10
337.4346952849111
 20
209.103226786907
 30
0.0
 10
337.5108051737042
 20
209.1068497124994
 30
0.0
 10
337.5816712750244
 20
209.1109711511912
 30
0.0
 10
337.6470225287717
 20
209.1172752003567
 30
0.0
 10
337.7068881292461
 20
209.1253996368508
 30
0.0
 10
337.7612381540971
 20
209.1355623439815
 30
0.0
 10
337.8101613226034
 20
209.1474024293827
 30
0.0
 10
337.8672192824583
 20
209.1657281899388
 30
0.0
 10
337.9309338501892
 20
209.1947622207938
 30
0.0
 10
338.0001773887919
 20
209.2370037803238
 30
0.0
 10
338.0591437951799
 20
209.2901343384257
 30
0.0
 10
338.1089621416995
 20
209.3508888306855
 30
0.0
 10
338.148993840252
 20
209.4176874278454
 30
0.0
 10
338.1772169181127
 20
209.4897294199201
 30
0.0
 10
338.1951261336205
 20
209.565196083827
 30
0.0
 10
338.1972384569925
 20
209.6170647959433
 30
0.0
 10
338.1983044692165
 20
209.6432410348147
 30
0.0
  0
LINE
  5
119
330
1F
100
AcDbEntity
  8
0
  6
Continuous
 62
     7
370
    25
100
AcDbLine
 10
336.7736265313
 20
209.1077137033
 30
0.0
 11
337.3549469065
 21
209.1032619814
 31
0.0
  0
LINE
  5
11A
330
1F
100
AcDbEntity
  8
0
  6
Continuous
 62
     7
370
    25
100
AcDbLine
 10
337.3689390968
 20
210.166048188
 30
0.0
 11
336.7736265313
 21
210.166048188
 31
0.0
  0
SPLINE
  5
11B
330
1F
100
AcDbEntity
  8
0
  6
Continuous
 62
     7
370
    25
100
AcDbSpline
210
0.0
220
0.0
230
1.0
 70
     8
 71
     3
 72
    23
 73
    19
 74
     0
 42
0.000000001
 43
0.00000001
 40
0.0
 40
0.0
 40
0.0
 40
0.0
 40
0.0688142958243092
 40
0.136364824552214
 40
0.2040193535112456
 40
0.2730637386246106
 40
0.342913319561492
 40
0.4109654441389584
 40
0.4791687665134455
 40
0.5493080065097853
 40
0.587651576417648
 40
0.6306466687627886
 40
0.6788787856966507
 40
0.7319342992295824
 40
0.7911114229480453
 40
0.85528318951308
 40
0.9250859386773832
 40
1.0
 40
1.0
 40
1.0
 40
1.0
 10
338.1983044692165
 20
209.6432410348147
 30
0.0
 10
338.1972139736576
 20
209.6687739981266
 30
0.0
 10
338.1950530093729
 20
209.7193710146422
 30
0.0
 10
338.1774101979236
 20
209.7934445904031
 30
0.0
 10
338.1475748305502
 20
209.863355323736
 30
0.0
 10
338.1073682290042
 20
209.9288188208356
 30
0.0
 10
338.0583832812882
 20
209.9882418812178
 30
0.0
 10
338.0009449797724
 20
210.0390846557771
 30
0.0
 10
337.9366238384577
 20
210.0810395273065
 30
0.0
 10
337.8765063942384
 20
210.1078495724852
 30
0.0
 10
337.8227725014775
 20
210.1242868679297
 30
0.0
 10
337.7761184527261
 20
210.1358539951011
 30
0.0
 10
337.7234030407949
 20
210.1451471919161
 30
0.0
 10
337.6643703033399
 20
210.1525930757101
 30
0.0
 10
337.5992722525564
 20
210.1589929179929
 30
0.0
 10
337.527779733352
 20
210.1633034600613
 30
0.0
 10
337.4503670826864
 20
210.1658560367861
 30
0.0
 10
337.3967123665342
 20
210.1659822102706
 30
0.0
 10
337.368937482037
 20
210.1660475251993
 30
0.0
  0
LINE
  5
11C
330
1F
100
AcDbEntity
  8
0
  6
Continuous
 62
     7
370
    25
100
AcDbLine
 10
336.7736265313
 20
210.166048188
 30
0.0
 11
336.7736265313
 21
209.1077137033
 31
0.0
  0
SPLINE
  5
11D
330
1F
100
AcDbEntity
  8
0
  6
Continuous
 62
     7
370
    25
100
AcDbSpline
210
0.0
220
0.0
230
1.0
 70
     8
 71
     3
 72
    23
 73
    19
 74
     0
 42
0.000000001
 43
0.00000001
 40
0.0
 40
0.0
 40
0.0
 40
0.0
 40
0.0716681496796072
 40
0.1389132862742009
 40
0.2011845700265563
 40
0.2591244282905352
 40
0.3122550414262366
 40
0.3606815096231061
 40
0.4050861433286382
 40
0.4451016585907105
 40
0.518777780488253
 40
0.5894615790331984
 40
0.6584622419857118
 40
0.7272832183683698
 40
0.7963224869047167
 40
0.8631748932078817
 40
0.9309493809878562
 40
1.0
 40
1.0
 40
1.0
 40
1.0
 10
370.4373786336336
 20
273.5521482816847
 30
0.0
 10
370.464520383227
 20
273.5521362741484
 30
0.0
 10
370.5171288243282
 20
273.5521130001232
 30
0.0
 10
370.5932387131214
 20
273.5557359257156
 30
0.0
 10
370.6641048144416
 20
273.5598573644074
 30
0.0
 10
370.729456068189
 20
273.5661614135729
 30
0.0
 10
370.7893216686632
 20
273.574285850067
 30
0.0
 10
370.8436716935143
 20
273.5844485571978
 30
0.0
 10
370.8925948620206
 20
273.5962886425989
 30
0.0
 10
370.9496528218754
 20
273.614614403155
 30
0.0
 10
371.0133673896065
 20
273.6436484340099
 30
0.0
 10
371.0826109282091
 20
273.68588999354
 30
0.0
 10
371.1415773345971
 20
273.7390205516419
 30
0.0
 10
371.1913956811167
 20
273.7997750439017
 30
0.0
 10
371.2314273796692
 20
273.8665736410616
 30
0.0
 10
371.2596504575299
 20
273.9386156331363
 30
0.0
 10
371.2775596730377
 20
274.0140822970432
 30
0.0
 10
371.2796719964097
 20
274.0659510091595
 30
0.0
 10
371.2807380086336
 20
274.0921272480309
 30
0.0
  0
LINE
  5
11E
330
1F
100
AcDbEntity
  8
0
  6
Continuous
 62
     7
370
    25
100
AcDbLine
 10
369.8560558509
 20
273.5565993229
 30
0.0
 11
370.4373799514
 21
273.552147601
 31
0.0
  0
SPLINE
  5
11F
330
1F
100
AcDbEntity
  8
0
  6
Continuous
 62
     7
370
    25
100
AcDbSpline
210
0.0
220
0.0
230
1.0
 70
     8
 71
     3
 72
    23
 73
    19
 74
     0
 42
0.000000001
 43
0.00000001
 40
0.0
 40
0.0
 40
0.0
 40
0.0
 40
0.068814295824309
 40
0.1363648245522201
 40
0.2040193535112515
 40
0.2730637386246101
 40
0.3429133195614933
 40
0.41096544413896
 40
0.4791687665134506
 40
0.549308006509785
 40
0.5876515764176518
 40
0.6306466687628001
 40
0.6788787856966562
 40
0.7319342992295815
 40
0.7911114229480506
 40
0.8552831895130796
 40
0.9250859386773892
 40
1.0
 40
1.0
 40
1.0
 40
1.0
 10
371.2807380086336
 20
274.0921272480309
 30
0.0
 10
371.2796475130748
 20
274.1176602113428
 30
0.0
 10
371.2774865487901
 20
274.1682572278584
 30
0.0
 10
371.2598437373408
 20
274.2423308036193
 30
0.0
 10
371.2300083699674
 20
274.3122415369522
 30
0.0
 10
371.1898017684214
 20
274.3777050340518
 30
0.0
 10
371.1408168207054
 20
274.437128094434
 30
0.0
 10
371.0833785191895
 20
274.4879708689933
 30
0.0
 10
371.0190573778749
 20
274.5299257405227
 30
0.0
 10
370.9589399336556
 20
274.5567357857013
 30
0.0
 10
370.9052060408947
 20
274.5731730811459
 30
0.0
 10
370.8585519921433
 20
274.5847402083174
 30
0.0
 10
370.8058365802121
 20
274.5940334051323
 30
0.0
 10
370.7468038427571
 20
274.6014792889263
 30
0.0
 10
370.6817057919736
 20
274.6078791312091
 30
0.0
 10
370.6102132727692
 20
274.6121896732776
 30
0.0
 10
370.5328006221035
 20
274.6147422500023
 30
0.0
 10
370.4791459059513
 20
274.6148684234868
 30
0.0
 10
370.4513710214541
 20
274.6149337384155
 30
0.0
  0
LINE
  5
120
330
1F
100
AcDbEntity
  8
0
  6
Continuous
 62
     7
370
    25
100
AcDbLine
 10
370.4513721418
 20
274.614931945
 30
0.0
 11
369.8560558509
 21
274.614931945
 31
0.0
  0
LINE
  5
121
330
1F
100
AcDbEntity
  8
0
  6
Continuous
 62
     7
370
    25
100
AcDbLine
 10
369.8560558509
 20
274.614931945
 30
0.0
 11
369.8560558509
 21
273.5565993229
 31
0.0
  0
SPLINE
  5
122
330
1F
100
AcDbEntity
  8
0
  6
Continuous
 62
     7
370
    25
100
AcDbSpline
210
0.0
220
0.0
230
1.0
 70
     8
 71
     3
 72
    23
 73
    19
 74
     0
 42
0.000000001
 43
0.00000001
 40
0.0
 40
0.0
 40
0.0
 40
0.0
 40
0.072538371406489
 40
0.140033830501249
 40
0.2024956806336233
 40
0.2605750556694169
 40
0.313228337846464
 40
0.3615831937532645
 40
0.4048783612951257
 40
0.4441274373055407
 40
0.5163996933371955
 40
0.5865066709977663
 40
0.6550853737960464
 40
0.7243837831470349
 40
0.7939735287256647
 40
0.8616376821817794
 40
0.9301109423064043
 40
1.0
 40
1.0
 40
1.0
 40
1.0
 10
355.5138610054285
 20
273.5496042111719
 30
0.0
 10
355.5410026524159
 20
273.5495901834857
 30
0.0
 10
355.5933990423549
 20
273.5495631033266
 30
0.0
 10
355.6690876162879
 20
273.5531782703399
 30
0.0
 10
355.7393088983414
 20
273.5573516106854
 30
0.0
 10
355.8038471917158
 20
273.5634620555402
 30
0.0
 10
355.8627315894256
 20
273.572099196258
 30
0.0
 10
355.9160602763332
 20
273.5808184156552
 30
0.0
 10
355.9634197401021
 20
273.5934325660124
 30
0.0
 10
356.0188454445611
 20
273.6104170644458
 30
0.0
 10
356.080606766915
 20
273.6393845086525
 30
0.0
 10
356.147796614504
 20
273.681430480344
 30
0.0
 10
356.2047385035511
 20
273.7350251227827
 30
0.0
 10
356.2540129584706
 20
273.7952846554859
 30
0.0
 10
356.2931161477433
 20
273.8623217228939
 30
0.0
 10
356.3217419407733
 20
273.9340485440668
 30
0.0
 10
356.3385614192388
 20
274.0097295218472
 30
0.0
 10
356.340816752055
 20
274.0615166192373
 30
0.0
 10
356.3419559573516
 20
274.0876751246334
 30
0.0
  0
LINE
  5
123
330
1F
100
AcDbEntity
  8
0
  6
Continuous
 62
     7
370
    25
100
AcDbLine
 10
354.9579829227
 20
273.5565993229
 30
0.0
 11
355.5138595652
 21
273.5496032277
 31
0.0
  0
LINE
  5
124
330
1F
100
AcDbEntity
  8
0
  6
Continuous
 62
     7
370
    25
100
AcDbLine
 10
354.9579829227
 20
274.614931945
 30
0.0
 11
354.9579829227
 21
273.5565993229
 31
0.0
  0
LINE
  5
125
330
1F
100
AcDbEntity
  8
0
  6
Continuous
 62
     7
370
    25
100
AcDbLine
 10
355.5386662733
 20
274.614931945
 30
0.0
 11
354.9579829227
 21
274.614931945
 31
0.0
  0
SPLINE
  5
126
330
1F
100
AcDbEntity
  8
0
  6
Continuous
 62
     7
370
    25
100
AcDbSpline
210
0.0
220
0.0
230
1.0
 70
     8
 71
     3
 72
    23
 73
    19
 74
     0
 42
0.000000001
 43
0.00000001
 40
0.0
 40
0.0
 40
0.0
 40
0.0
 40
0.0700437554181554
 40
0.1392383167626476
 40
0.2081974550441362
 40
0.2791733744245651
 40
0.3499868116864778
 40
0.4183538456626574
 40
0.4876095837571546
 40
0.5574110731083901
 40
0.5953301567632401
 40
0.6379640515652182
 40
0.6859127777112934
 40
0.7381851646524829
 40
0.7961026471849408
 40
0.8585165439469281
 40
0.92665772646852
 40
1.0
 40
1.0
 40
1.0
 40
1.0
 10
356.3419559573516
 20
274.0876751246334
 30
0.0
 10
356.340810556602
 20
274.1132007761192
 30
0.0
 10
356.3385336416732
 20
274.1639426120748
 30
0.0
 10
356.3216101086632
 20
274.2383090591994
 30
0.0
 10
356.2931718025156
 20
274.3092800196074
 30
0.0
 10
356.2537504632057
 20
274.3754770327495
 30
0.0
 10
356.2059067238843
 20
274.4355197334893
 30
0.0
 10
356.1502994626363
 20
274.4876778416107
 30
0.0
 10
356.0870595755693
 20
274.5296075290882
 30
0.0
 10
356.0282329659896
 20
274.5566705774409
 30
0.0
 10
355.9759804615218
 20
274.5731944344409
 30
0.0
 10
355.9305943264844
 20
274.5847558254272
 30
0.0
 10
355.8793492146289
 20
274.5939865539493
 30
0.0
 10
355.822228443216
 20
274.6014609600574
 30
0.0
 10
355.7596747439101
 20
274.6078594570242
 30
0.0
 10
355.6911507011129
 20
274.6122010220865
 30
0.0
 10
355.6169158961516
 20
274.614742343101
 30
0.0
 10
355.5653805925812
 20
274.6148683953696
 30
0.0
 10
355.5386656929285
 20
274.6149337384155
 30
0.0
  0
LINE
  5
127
330
1F
100
AcDbEntity
  8
0
  6
Continuous
 62
     7
370
    25
100
AcDbLine
 10
354.9579829227
 20
273.2309605221
 30
0.0
 11
354.9579829227
 21
271.765576605
 31
0.0
  0
LINE
  5
128
330
1F
100
AcDbEntity
  8
0
  6
Continuous
 62
     7
370
    25
100
AcDbLine
 10
355.1850393664
 20
273.2309605221
 30
0.0
 11
354.9579829227
 21
273.2309605221
 31
0.0
  0
SPLINE
  5
129
330
1F
100
AcDbEntity
  8
0
  6
Continuous
 62
     7
370
    25
100
AcDbSpline
210
0.0
220
0.0
230
1.0
 70
     8
 71
     3
 72
    15
 73
    11
 74
     0
 42
0.000000001
 43
0.00000001
 40
0.0
 40
0.0
 40
0.0
 40
0.0
 40
0.0751731173762219
 40
0.1647462575117963
 40
0.2680168809877772
 40
0.3859118756529507
 40
0.5177894792733975
 40
0.6636909770022773
 40
0.8244132205366456
 40
1.0
 40
1.0
 40
1.0
 40
1.0
 10
355.9934182970952
 20
273.283112824954
 30
0.0
 10
355.9735270726887
 20
273.2788828349761
 30
0.0
 10
355.9299342978687
 20
273.2696125659959
 30
0.0
 10
355.8581405427503
 20
273.2592634658582
 30
0.0
 10
355.7745515140854
 20
273.2504300709506
 30
0.0
 10
355.6792813030192
 20
273.243806896145
 30
0.0
 10
355.5724154249831
 20
273.2381369190401
 30
0.0
 10
355.4538960701198
 20
273.2336301481536
 30
0.0
 10
355.3234905858213
 20
273.231153780746
 30
0.0
 10
355.2325302429792
 20
273.2310260615645
 30
0.0
 10
355.1850398916465
 20
273.2309593794411
 30
0.0
  0
SPLINE
  5
12A
330
1F
100
AcDbEntity
  8
0
  6
Continuous
 62
     7
370
    25
100
AcDbSpline
210
0.0
220
0.0
230
1.0
 70
     8
 71
     3
 72
    23
 73
    19
 74
     0
 42
0.000000001
 43
0.00000001
 40
0.0
 40
0.0
 40
0.0
 40
0.0
 40
0.0701188944197142
 40
0.1371923527859706
 40
0.2020161807247548
 40
0.2646314069747456
 40
0.3261165471458166
 40
0.3860103046676415
 40
0.4458118469576801
 40
0.5052976967309594
 40
0.5646332777264865
 40
0.6242826253338403
 40
0.6839020319037494
 40
0.743952770938269
 40
0.8053877310076346
 40
0.8683880308962755
 40
0.9330840282524748
 40
1.0
 40
1.0
 40
1.0
 40
1.0
 10
356.6268918547875
 20
274.0889471598899
 30
0.0
 10
356.6265095623548
 20
274.0628416052326
 30
0.0
 10
356.62576158139
 20
274.0117643243678
 30
0.0
 10
356.6167842368417
 20
273.9370404379395
 30
0.0
 10
356.6046918487305
 20
273.8656316126058
 30
0.0
 10
356.5860980941194
 20
273.7976961825372
 30
0.0
 10
356.561745233523
 20
273.7336375907529
 30
0.0
 10
356.5331774427272
 20
273.6724769017056
 30
0.0
 10
356.4987209544632
 20
273.6152546279118
 30
0.0
 10
356.4591288589402
 20
273.5617630284277
 30
0.0
 10
356.4150856268838
 20
273.5119518936855
 30
0.0
 10
356.3667776044216
 20
273.4661821872528
 30
0.0
 10
356.3143998176535
 20
273.4247218231124
 30
0.0
 10
356.2581187261842
 20
273.3874778542023
 30
0.0
 10
356.1973856490253
 20
273.3553139435152
 30
0.0
 10
356.1331216954288
 20
273.3265055311899
 30
0.0
 10
356.0647682848175
 20
273.3023110690392
 30
0.0
 10
356.0174675757113
 20
273.2895837990309
 30
0.0
 10
355.9934182970952
 20
273.283112824954
 30
0.0
  0
SPLINE
  5
12B
330
1F
100
AcDbEntity
  8
0
  6
Continuous
 62
     7
370
    25
100
AcDbSpline
210
0.0
220
0.0
230
1.0
 70
     8
 71
     3
 72
    23
 73
    19
 74
     0
 42
0.000000001
 43
0.00000001
 40
0.0
 40
0.0
 40
0.0
 40
0.0
 40
0.0624813386352053
 40
0.1234903826872925
 40
0.1834110942063139
 40
0.2431532209997823
 40
0.3021267353720857
 40
0.3617096708329071
 40
0.4218422916948812
 40
0.4829319014466679
 40
0.5445522544313244
 40
0.6056807199653584
 40
0.6676797383436899
 40
0.7299843875380644
 40
0.7945509212861332
 40
0.8603456197120868
 40
0.9289073562657133
 40
1.0
 40
1.0
 40
1.0
 40
1.0
 10
356.0188590022234
 20
274.8928734419411
 30
0.0
 10
356.0408059935858
 20
274.886866387451
 30
0.0
 10
356.0841828229139
 20
274.8749938271951
 30
0.0
 10
356.1466859120133
 20
274.851214235185
 30
0.0
 10
356.206152614699
 20
274.8230182710615
 30
0.0
 10
356.2627869570028
 20
274.7908836970539
 30
0.0
 10
356.3158929895029
 20
274.7534317923984
 30
0.0
 10
356.3662630409506
 20
274.7121807248778
 30
0.0
 10
356.4134525945045
 20
274.6661780876728
 30
0.0
 10
356.4571962857137
 20
274.6159398450969
 30
0.0
 10
356.4973689235221
 20
274.5623093689901
 30
0.0
 10
356.5319579928532
 20
274.5044860604312
 30
0.0
 10
356.5609205488047
 20
274.4434432351861
 30
0.0
 10
356.5857610879368
 20
274.379223352779
 30
0.0
 10
356.6036394716339
 20
274.3112871307547
 30
0.0
 10
356.6171077306524
 20
274.240106613101
 30
0.0
 10
356.6256563071323
 20
274.1656894298468
 30
0.0
 10
356.6264750595816
 20
274.1148351214529
 30
0.0
 10
356.6268918547875
 20
274.0889471598899
 30
0.0
  0
SPLINE
  5
12C
330
1F
100
AcDbEntity
  8
0
  6
Continuous
 62
     7
370
    25
100
AcDbSpline
210
0.0
220
0.0
230
1.0
 70
     8
 71
     3
 72
    15
 73
    11
 74
     0
 42
0.000000001
 43
0.00000001
 40
0.0
 40
0.0
 40
0.0
 40
0.0
 40
0.1769557521312499
 40
0.339055079642587
 40
0.4863182249420783
 40
0.6187809228353826
 40
0.7356188277673814
 40
0.8387424767201106
 40
0.9264570678763182
 40
1.0
 40
1.0
 40
1.0
 40
1.0
 10
355.2957069589541
 20
274.9405747640565
 30
0.0
 10
355.3385339952488
 20
274.9405276867523
 30
0.0
 10
355.4205924987272
 20
274.9404374845467
 30
0.0
 10
355.5382625849774
 20
274.937702679405
 30
0.0
 10
355.6451328415241
 20
274.9340498944351
 30
0.0
 10
355.7409728299361
 20
274.9289863198956
 30
0.0
 10
355.8260774332005
 20
274.9230022701711
 30
0.0
 10
355.900061554932
 20
274.9146093487359
 30
0.0
 10
355.963506723892
 20
274.9058460806268
 30
0.0
 10
356.0015218601756
 20
274.8969366618556
 30
0.0
 10
356.0188590022234
 20
274.8928734419411
 30
0.0
  0
LINE
  5
12D
330
1F
100
AcDbEntity
  8
0
  6
Continuous
 62
     7
370
    25
100
AcDbLine
 10
354.6730466436
 20
274.9405744711
 30
0.0
 11
355.2957065653
 21
274.9405744711
 31
0.0
  0
LINE
  5
12E
330
1F
100
AcDbEntity
  8
0
  6
Continuous
 62
     7
370
    25
100
AcDbLine
 10
354.6730466436
 20
271.765576605
 30
0.0
 11
354.6730466436
 21
274.9405744711
 31
0.0
  0
LINE
  5
12F
330
1F
100
AcDbEntity
  8
0
  6
Continuous
 62
     7
370
    25
100
AcDbLine
 10
354.9579829227
 20
271.765576605
 30
0.0
 11
354.6730466436
 21
271.765576605
 31
0.0
  0
LINE
  5
130
330
1F
100
AcDbEntity
  8
0
  6
Continuous
 62
     7
370
    25
100
AcDbLine
 10
361.7557361971
 20
272.0912154058
 30
0.0
 11
361.7557361971
 21
271.765576605
 31
0.0
  0
LINE
  5
131
330
1F
100
AcDbEntity
  8
0
  6
Continuous
 62
     7
370
    25
100
AcDbLine
 10
360.2496497583
 20
272.0912154058
 30
0.0
 11
361.7557361971
 21
272.0912154058
 31
0.0
  0
LINE
  5
132
330
1F
100
AcDbEntity
  8
0
  6
Continuous
 62
     7
370
    25
100
AcDbLine
 10
360.2496497583
 20
273.312369291
 30
0.0
 11
360.2496497583
 21
272.0912154058
 31
0.0
  0
LINE
  5
133
330
1F
100
AcDbEntity
  8
0
  6
Continuous
 62
     7
370
    25
100
AcDbLine
 10
361.7557361971
 20
273.312369291
 30
0.0
 11
360.2496497583
 21
273.312369291
 31
0.0
  0
LINE
  5
134
330
1F
100
AcDbEntity
  8
0
  6
Continuous
 62
     7
370
    25
100
AcDbLine
 10
361.7557361971
 20
273.6380118171
 30
0.0
 11
361.7557361971
 21
273.312369291
 31
0.0
  0
LINE
  5
135
330
1F
100
AcDbEntity
  8
0
  6
Continuous
 62
     7
370
    25
100
AcDbLine
 10
360.2496497583
 20
273.6380118171
 30
0.0
 11
361.7557361971
 21
273.6380118171
 31
0.0
  0
LINE
  5
136
330
1F
100
AcDbEntity
  8
0
  6
Continuous
 62
     7
370
    25
100
AcDbLine
 10
360.2496497583
 20
274.614931945
 30
0.0
 11
360.2496497583
 21
273.6380118171
 31
0.0
  0
LINE
  5
137
330
1F
100
AcDbEntity
  8
0
  6
Continuous
 62
     7
370
    25
100
AcDbLine
 10
361.7557361971
 20
274.614931945
 30
0.0
 11
360.2496497583
 21
274.614931945
 31
0.0
  0
LINE
  5
138
330
1F
100
AcDbEntity
  8
0
  6
Continuous
 62
     7
370
    25
100
AcDbLine
 10
361.7557361971
 20
274.9405744711
 30
0.0
 11
361.7557361971
 21
274.614931945
 31
0.0
  0
LINE
  5
139
330
1F
100
AcDbEntity
  8
0
  6
Continuous
 62
     7
370
    25
100
AcDbLine
 10
359.9647134792
 20
274.9405744711
 30
0.0
 11
361.7557361971
 21
274.9405744711
 31
0.0
  0
LINE
  5
13A
330
1F
100
AcDbEntity
  8
0
  6
Continuous
 62
     7
370
    25
100
AcDbLine
 10
359.9647134792
 20
271.765576605
 30
0.0
 11
359.9647134792
 21
274.9405744711
 31
0.0
  0
LINE
  5
13B
330
1F
100
AcDbEntity
  8
0
  6
Continuous
 62
     7
370
    25
100
AcDbLine
 10
361.7557361971
 20
271.765576605
 30
0.0
 11
359.9647134792
 21
271.765576605
 31
0.0
  0
SPLINE
  5
13C
330
1F
100
AcDbEntity
  8
0
  6
Continuous
 62
     7
370
    25
100
AcDbSpline
210
0.0
220
0.0
230
1.0
 70
     8
 71
     3
 72
    19
 73
    15
 74
     0
 42
0.000000001
 43
0.00000001
 40
0.0
 40
0.0
 40
0.0
 40
0.0
 40
0.0969723103815152
 40
0.1877734389628666
 40
0.2723961390136974
 40
0.3513209973752892
 40
0.4243347744514666
 40
0.4919087840005274
 40
0.5542332197967994
 40
0.611267658244153
 40
0.7163478449915514
 40
0.8145400858216175
 40
0.9084954561491838
 40
1.0
 40
1.0
 40
1.0
 40
1.0
 10
363.1244479445311
 20
273.5680487223899
 30
0.0
 10
363.15890659446
 20
273.5429740605126
 30
0.0
 10
363.2256309941747
 20
273.4944204530653
 30
0.0
 10
363.3205703702373
 20
273.4214719433261
 30
0.0
 10
363.4066526104376
 20
273.3501271818338
 30
0.0
 10
363.4841799451049
 20
273.2808417811109
 30
0.0
 10
363.5539182834752
 20
273.2141412967433
 30
0.0
 10
363.6150939300874
 20
273.1492232688723
 30
0.0
 10
363.6683302258309
 20
273.086552785082
 30
0.0
 10
363.7256428025768
 20
273.006204805705
 30
0.0
 10
363.7842059674276
 20
272.9075248221133
 30
0.0
 10
363.8344993348784
 20
272.7866224200043
 30
0.0
 10
363.8662115500694
 20
272.6652500435536
 30
0.0
 10
363.8703585676398
 20
272.5836735561797
 30
0.0
 10
363.8724046753003
 20
272.5434243233514
 30
0.0
  0
SPLINE
  5
13D
330
1F
100
AcDbEntity
  8
0
  6
Continuous
 62
     7
370
    25
100
AcDbSpline
210
0.0
220
0.0
230
1.0
 70
     8
 71
     3
 72
    15
 73
    11
 74
     0
 42
0.000000001
 43
0.00000001
 40
0.0
 40
0.0
 40
0.0
 40
0.0
 40
0.0525942815291348
 40
0.1249519739750369
 40
0.2180938989285894
 40
0.3335024107325127
 40
0.4687891785044515
 40
0.6249375859645997
 40
0.801683047928227
 40
1.0
 40
1.0
 40
1.0
 40
1.0
 10
362.6976801160055
 20
273.8841494836078
 30
0.0
 10
362.704630075261
 20
273.8779473244749
 30
0.0
 10
362.7211415875923
 20
273.8632124140619
 30
0.0
 10
362.7513276059419
 20
273.8390894166208
 30
0.0
 10
362.791190001479
 20
273.8093326160387
 30
0.0
 10
362.8396878554037
 20
273.772514121808
 30
0.0
 10
362.8977153906847
 20
273.7298045097444
 30
0.0
 10
362.9652789880445
 20
273.681749875853
 30
0.0
 10
363.0416255214019
 20
273.6267902094682
 30
0.0
 10
363.0958018308251
 20
273.5883658690578
 30
0.0
 10
363.1244479445311
 20
273.5680487223899
 30
0.0
  0
SPLINE
  5
13E
330
1F
100
AcDbEntity
  8
0
  6
Continuous
 62
     7
370
    25
100
AcDbSpline
210
0.0
220
0.0
230
1.0
 70
     8
 71
     3
 72
    15
 73
    11
 74
     0
 42
0.000000001
 43
0.00000001
 40
0.0
 40
0.0
 40
0.0
 40
0.0
 40
0.1072852142689505
 40
0.2147458609696349
 40
0.3229385595552854
 40
0.434116162517463
 40
0.5534123109627976
 40
0.6860729848107329
 40
0.8342559920595825
 40
1.0
 40
1.0
 40
1.0
 40
1.0
 10
362.4884303163259
 20
274.2943808538001
 30
0.0
 10
362.4887869383447
 20
274.2773705839813
 30
0.0
 10
362.4895007655296
 20
274.2433222292059
 30
0.0
 10
362.4994564748593
 20
274.1930198678621
 30
0.0
 10
362.5122465804139
 20
274.1428445813894
 30
0.0
 10
362.5325145392188
 20
274.0930219526755
 30
0.0
 10
362.5604956360703
 20
274.0426806412496
 30
0.0
 10
362.597239617071
 20
273.9909537793215
 30
0.0
 10
362.6435159787164
 20
273.9373854435975
 30
0.0
 10
362.6789644113495
 20
273.902544468816
 30
0.0
 10
362.6976801160055
 20
273.8841494836078
 30
0.0
  0
SPLINE
  5
13F
330
1F
100
AcDbEntity
  8
0
  6
Continuous
 62
     7
370
    25
100
AcDbSpline
210
0.0
220
0.0
230
1.0
 70
     8
 71
     3
 72
    15
 73
    11
 74
     0
 42
0.000000001
 43
0.00000001
 40
0.0
 40
0.0
 40
0.0
 40
0.0
 40
0.1430730837303573
 40
0.2759029640930087
 40
0.4023708562739904
 40
0.5284136450935903
 40
0.6503563791869494
 40
0.7658950861246967
 40
0.8807741308440182
 40
1.0
 40
1.0
 40
1.0
 40
1.0
 10
362.9539952201721
 20
274.6963439948257
 30
0.0
 10
362.9211960891329
 20
274.6952448098694
 30
0.0
 10
362.8579460546927
 20
274.6931251352273
 30
0.0
 10
362.7681477690808
 20
274.6699748628557
 30
0.0
 10
362.6873268513448
 20
274.6335241752925
 30
0.0
 10
362.6178827387582
 20
274.5824384451628
 30
0.0
 10
362.5600641952977
 20
274.521912973227
 30
0.0
 10
362.5182399577038
 20
274.4522635832662
 30
0.0
 10
362.4930665941459
 20
274.3753538323321
 30
0.0
 10
362.4899947547482
 20
274.3217039012312
 30
0.0
 10
362.4884303163259
 20
274.2943808538001
 30
0.0
  0
SPLINE
  5
140
330
1F
100
AcDbEntity
  8
0
  6
Continuous
 62
     7
370
    25
100
AcDbSpline
210
0.0
220
0.0
230
1.0
 70
     8
 71
     3
 72
    19
 73
    15
 74
     0
 42
0.000000001
 43
0.00000001
 40
0.0
 40
0.0
 40
0.0
 40
0.0
 40
0.0984694310255601
 40
0.1896291011376388
 40
0.274184089437973
 40
0.3521831609671574
 40
0.4231988731834745
 40
0.488550946000529
 40
0.5484733460279345
 40
0.6014401636178729
 40
0.7011980824257673
 40
0.7995918021381816
 40
0.8985450984822196
 40
0.9999999999999999
 40
0.9999999999999999
 40
0.9999999999999999
 40
0.9999999999999999
 10
363.5741124076721
 20
274.2892927127745
 30
0.0
 10
363.5585585975007
 20
274.309330310515
 30
0.0
 10
363.5286055957282
 20
274.3479180387969
 30
0.0
 10
363.4831309897905
 20
274.4019577322398
 30
0.0
 10
363.4402697163199
 20
274.451321252958
 30
0.0
 10
363.3980418536585
 20
274.4941974762424
 30
0.0
 10
363.3586776308288
 20
274.5329344114846
 30
0.0
 10
363.3204714567904
 20
274.5660993337468
 30
0.0
 10
363.2839731524537
 20
274.5940171953156
 30
0.0
 10
363.2379656692247
 20
274.6238109961357
 30
0.0
 10
363.1801645961744
 20
274.6533443957888
 30
0.0
 10
363.107607195443
 20
274.6783353451879
 30
0.0
 10
363.0317825030899
 20
274.6933531513571
 30
0.0
 10
362.9801391945233
 20
274.6953387850794
 30
0.0
 10
362.9539952201721
 20
274.6963439948257
 30
0.0
  0
LINE
  5
141
330
1F
100
AcDbEntity
  8
0
  6
Continuous
 62
     7
370
    25
100
AcDbLine
 10
363.8316989194
 20
274.4845505098
 30
0.0
 11
363.5741137218
 21
274.2892931441
 31
0.0
  0
SPLINE
  5
142
330
1F
100
AcDbEntity
  8
0
  6
Continuous
 62
     7
370
    25
100
AcDbSpline
210
0.0
220
0.0
230
1.0
 70
     8
 71
     3
 72
    19
 73
    15
 74
     0
 42
0.000000001
 43
0.00000001
 40
0.0
 40
0.0
 40
0.0
 40
0.0
 40
0.1072327993600874
 40
0.21325181278185
 40
0.3188304473075887
 40
0.4267935306342801
 40
0.4836459507827172
 40
0.5436038220211454
 40
0.6083076495640846
 40
0.6771267602600384
 40
0.7506856360204958
 40
0.8287134184432834
 40
0.9121903482234529
 40
1.0
 40
1.0
 40
1.0
 40
1.0
 10
362.9857961015823
 20
275.0219850204668
 30
0.0
 10
363.023210392567
 20
275.0206945629446
 30
0.0
 10
363.0976154759373
 20
275.0181282548043
 30
0.0
 10
363.2070615500611
 20
274.9958147799643
 30
0.0
 10
363.3124359142245
 20
274.9588934562709
 30
0.0
 10
363.3972023044536
 20
274.9169937451055
 30
0.0
 10
363.4635441666368
 20
274.8751459608513
 30
0.0
 10
363.5141380027189
 20
274.8370279773984
 30
0.0
 10
363.5654074045039
 20
274.7931448431646
 30
0.0
 10
363.61776592567
 20
274.7433796699341
 30
0.0
 10
363.6703263810184
 20
274.6872758314457
 30
0.0
 10
363.7238690841256
 20
274.6252175636495
 30
0.0
 10
363.778519242261
 20
274.557584116544
 30
0.0
 10
363.8136763439448
 20
274.5093018908595
 30
0.0
 10
363.8316995470951
 20
274.4845501246335
 30
0.0
  0
SPLINE
  5
143
330
1F
100
AcDbEntity
  8
0
  6
Continuous
 62
     7
370
    25
100
AcDbSpline
210
0.0
220
0.0
230
1.0
 70
     8
 71
     3
 72
    19
 73
    15
 74
     0
 42
0.000000001
 43
0.00000001
 40
0.0
 40
0.0
 40
0.0
 40
0.0
 40
0.0837853706537104
 40
0.1657798879221422
 40
0.2462800078932606
 40
0.3274609277363901
 40
0.4087969540320677
 40
0.489715241230989
 40
0.5713760321300528
 40
0.6555233211112775
 40
0.7410194827999756
 40
0.8265467605037605
 40
0.9119888516548373
 40
1.0
 40
1.0
 40
1.0
 40
1.0
 10
362.20349441889
 20
274.2810244836078
 30
0.0
 10
362.2046784299055
 20
274.3146157791057
 30
0.0
 10
362.2070211445334
 20
274.3810803797797
 30
0.0
 10
362.2268336137715
 20
274.4781726331093
 30
0.0
 10
362.2581054530152
 20
274.5708703115852
 30
0.0
 10
362.3019158155753
 20
274.6582556857498
 30
0.0
 10
362.3583921285798
 20
274.7380533969841
 30
0.0
 10
362.4237481196111
 20
274.8111813458893
 30
0.0
 10
362.5015913964122
 20
274.8726571311896
 30
0.0
 10
362.5870012760869
 20
274.9263709270141
 30
0.0
 10
362.6804881279048
 20
274.9684133020234
 30
0.0
 10
362.7784513045583
 20
275.0001279054547
 30
0.0
 10
362.8810465056097
 20
275.0180977320744
 30
0.0
 10
362.9505364920181
 20
275.0206765259594
 30
0.0
 10
362.9857961015823
 20
275.0219850204668
 30
0.0
  0
SPLINE
  5
144
330
1F
100
AcDbEntity
  8
0
  6
Continuous
 62
     7
370
    25
100
AcDbSpline
210
0.0
220
0.0
230
1.0
 70
     8
 71
     3
 72
    15
 73
    11
 74
     0
 42
0.000000001
 43
0.00000001
 40
0.0
 40
0.0
 40
0.0
 40
0.0
 40
0.1335067689985293
 40
0.262558978730368
 40
0.3882644471488857
 40
0.5126673546814264
 40
0.6337222699657661
 40
0.7553938601370918
 40
0.8775529450912729
 40
1.0
 40
1.0
 40
1.0
 40
1.0
 10
362.3809433371593
 20
273.7976510861719
 30
0.0
 10
362.366907528271
 20
273.8163391696039
 30
0.0
 10
362.3393042263936
 20
273.8530917937379
 30
0.0
 10
362.3028679214359
 20
273.9105364861414
 30
0.0
 10
362.2718988237545
 20
273.9693404483341
 30
0.0
 10
362.2476215653166
 20
274.0296616969034
 30
0.0
 10
362.2271779953693
 20
274.0906533823879
 30
0.0
 10
362.2134275867896
 20
274.1531112981298
 30
0.0
 10
362.2048175338731
 20
274.2167551877368
 30
0.0
 10
362.2039358032324
 20
274.2595845775872
 30
0.0
 10
362.20349441889
 20
274.2810244836078
 30
0.0
  0
SPLINE
  5
145
330
1F
100
AcDbEntity
  8
0
  6
Continuous
 62
     7
370
    25
100
AcDbSpline
210
0.0
220
0.0
230
1.0
 70
     8
 71
     3
 72
    15
 73
    11
 74
     0
 42
0.000000001
 43
0.00000001
 40
0.0
 40
0.0
 40
0.0
 40
0.0
 40
0.1815353013762909
 40
0.3470816724816325
 40
0.4955678164315596
 40
0.6283573018772127
 40
0.7455196699921616
 40
0.8458307507576602
 40
0.9307818073847617
 40
1.0
 40
1.0
 40
1.0
 40
1.0
 10
362.9012057570311
 20
273.3657951166206
 30
0.0
 10
362.8678011319258
 20
273.3895881925325
 30
0.0
 10
362.8039340324567
 20
273.4350787418545
 30
0.0
 10
362.7146180327567
 20
273.5025921994954
 30
0.0
 10
362.6347491270263
 20
273.5643177097228
 30
0.0
 10
362.5646823048944
 20
273.6208363492729
 30
0.0
 10
362.5044483848984
 20
273.6721557835636
 30
0.0
 10
362.4535727191927
 20
273.7177831997854
 30
0.0
 10
362.4133513138274
 20
273.7589525728588
 30
0.0
 10
362.3909851799443
 20
273.7856600757277
 30
0.0
 10
362.3809433371593
 20
273.7976510861719
 30
0.0
  0
SPLINE
  5
146
330
1F
100
AcDbEntity
  8
0
  6
Continuous
 62
     7
370
    25
100
AcDbSpline
210
0.0
220
0.0
230
1.0
 70
     8
 71
     3
 72
    15
 73
    11
 74
     0
 42
0.000000001
 43
0.00000001
 40
0.0
 40
0.0
 40
0.0
 40
0.0
 40
0.0902792146500133
 40
0.1895299184469577
 40
0.2991978724002876
 40
0.4189258867738203
 40
0.5483762854012477
 40
0.6881363695386806
 40
0.8390835016589174
 40
1.0
 40
1.0
 40
1.0
 40
1.0
 10
363.4736216224157
 20
272.8595250845693
 30
0.0
 10
363.4594061366947
 20
272.8777104174095
 30
0.0
 10
363.4295625025889
 20
272.9158882489679
 30
0.0
 10
363.3782567590223
 20
272.9727164268634
 30
0.0
 10
363.3180532124739
 20
273.0313345640557
 30
0.0
 10
363.2510121305183
 20
273.0939809942883
 30
0.0
 10
363.1746913999272
 20
273.1577420669981
 30
0.0
 10
363.0914814404329
 20
273.2256582905571
 30
0.0
 10
362.9992577969422
 20
273.2951468640209
 30
0.0
 10
362.9345789678673
 20
273.3417491199095
 30
0.0
 10
362.9012057570311
 20
273.3657951166206
 30
0.0
  0
SPLINE
  5
147
330
1F
100
AcDbEntity
  8
0
  6
Continuous
 62
     7
370
    25
100
AcDbSpline
210
0.0
220
0.0
230
1.0
 70
     8
 71
     3
 72
    11
 73
     7
 74
     0
 42
0.000000001
 43
0.00000001
 40
0.0
 40
0.0
 40
0.0
 40
0.0
 40
0.2347233736739137
 40
0.4771583189289929
 40
0.7285562842030692
 40
1.0
 40
1.0
 40
1.0
 40
1.0
 10
363.5874687778644
 20
272.5478764467488
 30
0.0
 10
363.5861313674444
 20
272.574311360412
 30
0.0
 10
363.5834126074939
 20
272.6280496769978
 30
0.0
 10
363.5604333362854
 20
272.7073336478917
 30
0.0
 10
363.5242843766488
 20
272.7857947649852
 30
0.0
 10
363.4909354070021
 20
272.8343280559021
 30
0.0
 10
363.4736216224157
 20
272.8595250845693
 30
0.0
  0
SPLINE
  5
148
330
1F
100
AcDbEntity
  8
0
  6
Continuous
 62
     7
370
    25
100
AcDbSpline
210
0.0
220
0.0
230
1.0
 70
     8
 71
     3
 72
    19
 73
    15
 74
     0
 42
0.000000001
 43
0.00000001
 40
0.0
 40
0.0
 40
0.0
 40
0.0
 40
0.0912636048966212
 40
0.1809303110850811
 40
0.2700882198317215
 40
0.3601561333877231
 40
0.448342532498151
 40
0.5326658421383328
 40
0.6138337041070486
 40
0.6939815272835599
 40
0.7727159770890042
 40
0.8493351720622475
 40
0.9239673265752335
 40
0.9999999999999999
 40
0.9999999999999999
 40
0.9999999999999999
 40
0.9999999999999999
 10
362.9654435374798
 20
272.0098055332873
 30
0.0
 10
362.993280903801
 20
272.0105808433519
 30
0.0
 10
363.0484685479224
 20
272.0121178973764
 30
0.0
 10
363.1297142968942
 20
272.026886910664
 30
0.0
 10
363.2086192175213
 20
272.0495764847498
 30
0.0
 10
363.2835570531768
 20
272.0820711869039
 30
0.0
 10
363.3534937892161
 20
272.1213853846687
 30
0.0
 10
363.4148227199858
 20
272.1688708456932
 30
0.0
 10
363.4678416940844
 20
272.2220350465906
 30
0.0
 10
363.5112113908703
 20
272.2813464547301
 30
0.0
 10
363.5444854228818
 20
272.3451341538238
 30
0.0
 10
363.570059656371
 20
272.4106080525378
 30
0.0
 10
363.5842519731879
 20
272.4787966823338
 30
0.0
 10
363.5863898852521
 20
272.5247076022029
 30
0.0
 10
363.5874687778644
 20
272.5478764467488
 30
0.0
  0
SPLINE
  5
149
330
1F
100
AcDbEntity
  8
0
  6
Continuous
 62
     7
370
    25
100
AcDbSpline
210
0.0
220
0.0
230
1.0
 70
     8
 71
     3
 72
    15
 73
    11
 74
     0
 42
0.000000001
 43
0.00000001
 40
0.0
 40
0.0
 40
0.0
 40
0.0
 40
0.1590042985173774
 40
0.3046460998968161
 40
0.4385469045795965
 40
0.5623222987759307
 40
0.6774325425257297
 40
0.78689739293875
 40
0.8936108891042619
 40
1.0
 40
1.0
 40
1.0
 40
1.0
 10
362.268368216967
 20
272.538972199954
 30
0.0
 10
362.2933311893299
 20
272.4971852221805
 30
0.0
 10
362.3411592810427
 20
272.4171229853488
 30
0.0
 10
362.4209437282739
 20
272.308938905817
 30
0.0
 10
362.5036142976887
 20
272.2169889493285
 30
0.0
 10
362.5897831931229
 20
272.1418080267745
 30
0.0
 10
362.6789244460624
 20
272.0826179652249
 30
0.0
 10
362.7716199805236
 20
272.0407059407373
 30
0.0
 10
362.8675574230975
 20
272.0145657345076
 30
0.0
 10
362.9328479611539
 20
272.0113906559902
 30
0.0
 10
362.9654435374798
 20
272.0098055332873
 30
0.0
  0
LINE
  5
14A
330
1F
100
AcDbEntity
  8
0
  6
Continuous
 62
     7
370
    25
100
AcDbLine
 10
361.9999699544
 20
272.3780590335
 30
0.0
 11
362.2683696698
 21
272.538972948
 31
0.0
  0
SPLINE
  5
14B
330
1F
100
AcDbEntity
  8
0
  6
Continuous
 62
     7
370
    25
100
AcDbSpline
210
0.0
220
0.0
230
1.0
 70
     8
 71
     3
 72
    23
 73
    19
 74
     0
 42
0.000000001
 43
0.00000001
 40
0.0
 40
0.0
 40
0.0
 40
0.0
 40
0.0572082694335114
 40
0.1136960596574929
 40
0.1691779164171973
 40
0.2241592165805462
 40
0.2787198783810477
 40
0.3337942174469905
 40
0.3892414593400052
 40
0.445822073393621
 40
0.5037042811090214
 40
0.5642938918193657
 40
0.6279754158952265
 40
0.6950382596840542
 40
0.7653727258510127
 40
0.839611443090737
 40
0.9175377500777927
 40
1.0
 40
1.0
 40
1.0
 40
1.0
 10
362.9654435374798
 20
271.6841645076462
 30
0.0
 10
362.9414629049185
 20
271.684628222381
 30
0.0
 10
362.8938036511548
 20
271.6855498118413
 30
0.0
 10
362.8233100497412
 20
271.6936971162243
 30
0.0
 10
362.7542405652544
 20
271.705224274482
 30
0.0
 10
362.6874618951235
 20
271.7235250379611
 30
0.0
 10
362.6221136717056
 20
271.7457291528493
 30
0.0
 10
362.558480108957
 20
271.7730689259919
 30
0.0
 10
362.4965303672449
 20
271.8058323873049
 30
0.0
 10
362.4359172742143
 20
271.8432928739323
 30
0.0
 10
362.3767949872684
 20
271.8868881136436
 30
0.0
 10
362.3197180413615
 20
271.9376640711268
 30
0.0
 10
362.2628137087887
 20
271.9942203506546
 30
0.0
 10
362.207761570697
 20
272.0580927902756
 30
0.0
 10
362.1534480755053
 20
272.1282494797251
 30
0.0
 10
362.1009440897115
 20
272.2053468103786
 30
0.0
 10
362.0491628172455
 20
272.2889648384314
 30
0.0
 10
362.0166730714307
 20
272.34780673762
 30
0.0
 10
361.9999687778645
 20
272.378059740018
 30
0.0
  0
SPLINE
  5
14C
330
1F
100
AcDbEntity
  8
0
  6
Continuous
 62
     7
370
    25
100
AcDbSpline
210
0.0
220
0.0
230
1.0
 70
     8
 71
     3
 72
    23
 73
    19
 74
     0
 42
0.000000001
 43
0.00000001
 40
0.0
 40
0.0
 40
0.0
 40
0.0
 40
0.0614842551968916
 40
0.1217745277022096
 40
0.1809195598139327
 40
0.2402561150782692
 40
0.3001144444023501
 40
0.3611459476126144
 40
0.4235005824125873
 40
0.4886693612807185
 40
0.5539541046535629
 40
0.6175812610152615
 40
0.6802384268167389
 40
0.7421873887724527
 40
0.804663211769292
 40
0.8682589893126659
 40
0.9330202571803753
 40
1.0
 40
1.0
 40
1.0
 40
1.0
 10
363.8724046753003
 20
272.5434243233514
 30
0.0
 10
363.871808557145
 20
272.5149596635861
 30
0.0
 10
363.8706278970462
 20
272.4585831085149
 30
0.0
 10
363.8570562109756
 20
272.3758017173432
 30
0.0
 10
363.8371719432924
 20
272.295400856987
 30
0.0
 10
363.8072024524944
 20
272.2183743478405
 30
0.0
 10
363.7706235875015
 20
272.1433130274062
 30
0.0
 10
363.724208491223
 20
272.0721858606049
 30
0.0
 10
363.6704079486396
 20
272.0034186276011
 30
0.0
 10
363.6086916047619
 20
271.9388450318717
 30
0.0
 10
363.541158536232
 20
271.8795666969421
 30
0.0
 10
363.469781184645
 20
271.826835334035
 30
0.0
 10
363.3944427227691
 20
271.7828676406692
 30
0.0
 10
363.3155518497779
 20
271.7469893768096
 30
0.0
 10
363.2330904443365
 20
271.7189282573394
 30
0.0
 10
363.1470862404295
 20
271.6985965831992
 30
0.0
 10
363.0573974695374
 20
271.6861181882991
 30
0.0
 10
362.9964370326824
 20
271.6848230046847
 30
0.0
 10
362.9654435374798
 20
271.6841645076462
 30
0.0
  0
SPLINE
  5
14D
330
1F
100
AcDbEntity
  8
0
  6
Continuous
 62
     7
370
    25
100
AcDbSpline
210
0.0
220
0.0
230
1.0
 70
     8
 71
     3
 72
    19
 73
    15
 74
     0
 42
0.000000001
 43
0.00000001
 40
0.0
 40
0.0
 40
0.0
 40
0.0
 40
0.0969723103815194
 40
0.1877734389628708
 40
0.2723961390136975
 40
0.3513209973752893
 40
0.4243347744514704
 40
0.4919087840005277
 40
0.5542332197967996
 40
0.6112676582441532
 40
0.7163478449915516
 40
0.8145400858216176
 40
0.9084954561491839
 40
1.0
 40
1.0
 40
1.0
 40
1.0
 10
365.322524867608
 20
273.5680487223899
 30
0.0
 10
365.3569835175369
 20
273.5429740605126
 30
0.0
 10
365.4237079172516
 20
273.4944204530653
 30
0.0
 10
365.5186472933142
 20
273.4214719433261
 30
0.0
 10
365.6047295335146
 20
273.3501271818338
 30
0.0
 10
365.6822568681818
 20
273.2808417811108
 30
0.0
 10
365.7519952065522
 20
273.2141412967433
 30
0.0
 10
365.8131708531643
 20
273.1492232688723
 30
0.0
 10
365.8664071489079
 20
273.0865527850821
 30
0.0
 10
365.9237197256538
 20
273.006204805705
 30
0.0
 10
365.9822828905045
 20
272.9075248221133
 30
0.0
 10
366.0325762579554
 20
272.7866224200043
 30
0.0
 10
366.0642884731462
 20
272.6652500435536
 30
0.0
 10
366.0684354907167
 20
272.5836735561797
 30
0.0
 10
366.0704815983772
 20
272.5434243233514
 30
0.0
  0
SPLINE
  5
14E
330
1F
100
AcDbEntity
  8
0
  6
Continuous
 62
     7
370
    25
100
AcDbSpline
210
0.0
220
0.0
230
1.0
 70
     8
 71
     3
 72
    15
 73
    11
 74
     0
 42
0.000000001
 43
0.00000001
 40
0.0
 40
0.0
 40
0.0
 40
0.0
 40
0.0525942815291348
 40
0.1249519739750369
 40
0.2180938989285998
 40
0.3335024107325232
 40
0.4687891785044512
 40
0.6249375859645995
 40
0.8016830479282268
 40
1.0
 40
1.0
 40
1.0
 40
1.0
 10
364.8957570390824
 20
273.8841494836078
 30
0.0
 10
364.9027069983379
 20
273.8779473244749
 30
0.0
 10
364.9192185106692
 20
273.8632124140619
 30
0.0
 10
364.9494045290188
 20
273.8390894166208
 30
0.0
 10
364.989266924556
 20
273.8093326160387
 30
0.0
 10
365.0377647784807
 20
273.7725141218079
 30
0.0
 10
365.0957923137616
 20
273.7298045097444
 30
0.0
 10
365.1633559111214
 20
273.681749875853
 30
0.0
 10
365.2397024444788
 20
273.6267902094682
 30
0.0
 10
365.2938787539019
 20
273.5883658690577
 30
0.0
 10
365.322524867608
 20
273.5680487223899
 30
0.0
  0
SPLINE
  5
14F
330
1F
100
AcDbEntity
  8
0
  6
Continuous
 62
     7
370
    25
100
AcDbSpline
210
0.0
220
0.0
230
1.0
 70
     8
 71
     3
 72
    15
 73
    11
 74
     0
 42
0.000000001
 43
0.00000001
 40
0.0
 40
0.0
 40
0.0
 40
0.0
 40
0.1072852142689518
 40
0.2147458609696367
 40
0.3229385595552877
 40
0.4341161625174603
 40
0.5534123109627956
 40
0.6860729848107314
 40
0.8342559920595818
 40
1.0
 40
1.0
 40
1.0
 40
1.0
 10
364.6865072394029
 20
274.2943808538001
 30
0.0
 10
364.6868638614217
 20
274.2773705839813
 30
0.0
 10
364.6875776886064
 20
274.2433222292059
 30
0.0
 10
364.6975333979362
 20
274.1930198678621
 30
0.0
 10
364.7103235034909
 20
274.1428445813895
 30
0.0
 10
364.7305914622958
 20
274.0930219526755
 30
0.0
 10
364.7585725591472
 20
274.0426806412496
 30
0.0
 10
364.795316540148
 20
273.9909537793215
 30
0.0
 10
364.8415929017933
 20
273.9373854435975
 30
0.0
 10
364.8770413344264
 20
273.902544468816
 30
0.0
 10
364.8957570390824
 20
273.8841494836078
 30
0.0
  0
SPLINE
  5
150
330
1F
100
AcDbEntity
  8
0
  6
Continuous
 62
     7
370
    25
100
AcDbSpline
210
0.0
220
0.0
230
1.0
 70
     8
 71
     3
 72
    15
 73
    11
 74
     0
 42
0.000000001
 43
0.00000001
 40
0.0
 40
0.0
 40
0.0
 40
0.0
 40
0.1430730837303665
 40
0.275902964093017
 40
0.4023708562739979
 40
0.5284136450935971
 40
0.6503563791869484
 40
0.765895086124695
 40
0.8807741308440189
 40
1.0
 40
1.0
 40
1.0
 40
1.0
 10
365.152072143249
 20
274.6963439948257
 30
0.0
 10
365.1192730122098
 20
274.6952448098694
 30
0.0
 10
365.0560229777696
 20
274.6931251352273
 30
0.0
 10
364.9662246921578
 20
274.6699748628556
 30
0.0
 10
364.8854037744218
 20
274.6335241752925
 30
0.0
 10
364.8159596618351
 20
274.5824384451628
 30
0.0
 10
364.7581411183747
 20
274.521912973227
 30
0.0
 10
364.7163168807808
 20
274.4522635832662
 30
0.0
 10
364.6911435172229
 20
274.3753538323321
 30
0.0
 10
364.6880716778251
 20
274.3217039012312
 30
0.0
 10
364.6865072394029
 20
274.2943808538001
 30
0.0
  0
SPLINE
  5
151
330
1F
100
AcDbEntity
  8
0
  6
Continuous
 62
     7
370
    25
100
AcDbSpline
210
0.0
220
0.0
230
1.0
 70
     8
 71
     3
 72
    19
 73
    15
 74
     0
 42
0.000000001
 43
0.00000001
 40
0.0
 40
0.0
 40
0.0
 40
0.0
 40
0.0984694310255552
 40
0.1896291011376404
 40
0.2741840894379751
 40
0.3521831609671539
 40
0.4231988731834715
 40
0.4885509460005332
 40
0.5484733460279392
 40
0.6014401636178704
 40
0.7011980824257656
 40
0.7995918021381893
 40
0.898545098482228
 40
1.0
 40
1.0
 40
1.0
 40
1.0
 10
365.772189330749
 20
274.2892927127745
 30
0.0
 10
365.7566355205777
 20
274.309330310515
 30
0.0
 10
365.7266825188051
 20
274.3479180387969
 30
0.0
 10
365.6812079128674
 20
274.4019577322397
 30
0.0
 10
365.6383466393969
 20
274.451321252958
 30
0.0
 10
365.5961187767354
 20
274.4941974762424
 30
0.0
 10
365.5567545539057
 20
274.5329344114846
 30
0.0
 10
365.5185483798674
 20
274.5660993337469
 30
0.0
 10
365.4820500755306
 20
274.5940171953156
 30
0.0
 10
365.4360425923016
 20
274.6238109961357
 30
0.0
 10
365.3782415192513
 20
274.6533443957889
 30
0.0
 10
365.3056841185199
 20
274.678335345188
 30
0.0
 10
365.2298594261668
 20
274.6933531513571
 30
0.0
 10
365.1782161176002
 20
274.6953387850794
 30
0.0
 10
365.152072143249
 20
274.6963439948258
 30
0.0
  0
LINE
  5
152
330
1F
100
AcDbEntity
  8
0
  6
Continuous
 62
     7
370
    25
100
AcDbLine
 10
366.0297766577
 20
274.4845505098
 30
0.0
 11
365.7721877348
 21
274.2892931441
 31
0.0
  0
SPLINE
  5
153
330
1F
100
AcDbEntity
  8
0
  6
Continuous
 62
     7
370
    25
100
AcDbSpline
210
0.0
220
0.0
230
1.0
 70
     8
 71
     3
 72
    19
 73
    15
 74
     0
 42
0.000000001
 43
0.00000001
 40
0.0
 40
0.0
 40
0.0
 40
0.0
 40
0.1072327993600881
 40
0.2132518127818449
 40
0.3188304473075842
 40
0.4267935306342762
 40
0.4836459507827193
 40
0.5436038220211424
 40
0.608307649564082
 40
0.6771267602600364
 40
0.7506856360204941
 40
0.8287134184432865
 40
0.9121903482234524
 40
1.0
 40
1.0
 40
1.0
 40
1.0
 10
365.1838730246592
 20
275.0219850204668
 30
0.0
 10
365.2212873156439
 20
275.0206945629446
 30
0.0
 10
365.2956923990142
 20
275.0181282548043
 30
0.0
 10
365.405138473138
 20
274.9958147799643
 30
0.0
 10
365.5105128373014
 20
274.9588934562709
 30
0.0
 10
365.5952792275306
 20
274.9169937451055
 30
0.0
 10
365.6616210897138
 20
274.8751459608513
 30
0.0
 10
365.7122149257959
 20
274.8370279773984
 30
0.0
 10
365.7634843275808
 20
274.7931448431646
 30
0.0
 10
365.8158428487469
 20
274.7433796699341
 30
0.0
 10
365.8684033040952
 20
274.6872758314457
 30
0.0
 10
365.9219460072025
 20
274.6252175636495
 30
0.0
 10
365.9765961653379
 20
274.557584116544
 30
0.0
 10
366.0117532670217
 20
274.5093018908595
 30
0.0
 10
366.0297764701721
 20
274.4845501246335
 30
0.0
  0
SPLINE
  5
154
330
1F
100
AcDbEntity
  8
0
  6
Continuous
 62
     7
370
    25
100
AcDbSpline
210
0.0
220
0.0
230
1.0
 70
     8
 71
     3
 72
    19
 73
    15
 74
     0
 42
0.000000001
 43
0.00000001
 40
0.0
 40
0.0
 40
0.0
 40
0.0
 40
0.0837853706537101
 40
0.1657798879221417
 40
0.2462800078932618
 40
0.3274609277363884
 40
0.4087969540320691
 40
0.4897152412309902
 40
0.5713760321300536
 40
0.6555233211112781
 40
0.7410194827999708
 40
0.8265467605037607
 40
0.9119888516548317
 40
0.9999999999999999
 40
0.9999999999999999
 40
0.9999999999999999
 40
0.9999999999999999
 10
364.401571341967
 20
274.2810244836078
 30
0.0
 10
364.4027553529824
 20
274.3146157791057
 30
0.0
 10
364.4050980676103
 20
274.3810803797797
 30
0.0
 10
364.4249105368485
 20
274.4781726331094
 30
0.0
 10
364.4561823760921
 20
274.5708703115852
 30
0.0
 10
364.4999927386523
 20
274.6582556857498
 30
0.0
 10
364.5564690516567
 20
274.7380533969841
 30
0.0
 10
364.621825042688
 20
274.8111813458893
 30
0.0
 10
364.6996683194891
 20
274.8726571311896
 30
0.0
 10
364.7850781991638
 20
274.9263709270141
 30
0.0
 10
364.8785650509816
 20
274.9684133020234
 30
0.0
 10
364.9765282276352
 20
275.0001279054547
 30
0.0
 10
365.0791234286867
 20
275.0180977320744
 30
0.0
 10
365.148613415095
 20
275.0206765259594
 30
0.0
 10
365.1838730246592
 20
275.0219850204668
 30
0.0
  0
SPLINE
  5
155
330
1F
100
AcDbEntity
  8
0
  6
Continuous
 62
     7
370
    25
100
AcDbSpline
210
0.0
220
0.0
230
1.0
 70
     8
 71
     3
 72
    15
 73
    11
 74
     0
 42
0.000000001
 43
0.00000001
 40
0.0
 40
0.0
 40
0.0
 40
0.0
 40
0.1335067689985296
 40
0.2625589787303686
 40
0.3882644471488866
 40
0.5126673546814277
 40
0.6337222699657634
 40
0.7553938601370923
 40
0.8775529450912719
 40
1.0
 40
1.0
 40
1.0
 40
1.0
 10
364.5790202602362
 20
273.7976510861719
 30
0.0
 10
364.5649844513479
 20
273.8163391696039
 30
0.0
 10
364.5373811494704
 20
273.8530917937379
 30
0.0
 10
364.5009448445128
 20
273.9105364861414
 30
0.0
 10
364.4699757468314
 20
273.9693404483341
 30
0.0
 10
364.4456984883935
 20
274.0296616969034
 30
0.0
 10
364.4252549184462
 20
274.0906533823879
 30
0.0
 10
364.4115045098665
 20
274.1531112981297
 30
0.0
 10
364.4028944569501
 20
274.2167551877368
 30
0.0
 10
364.4020127263094
 20
274.2595845775872
 30
0.0
 10
364.401571341967
 20
274.2810244836078
 30
0.0
  0
SPLINE
  5
156
330
1F
100
AcDbEntity
  8
0
  6
Continuous
 62
     7
370
    25
100
AcDbSpline
210
0.0
220
0.0
230
1.0
 70
     8
 71
     3
 72
    15
 73
    11
 74
     0
 42
0.000000001
 43
0.00000001
 40
0.0
 40
0.0
 40
0.0
 40
0.0
 40
0.1815353013762828
 40
0.3470816724816327
 40
0.4955678164315518
 40
0.6283573018772131
 40
0.7455196699921541
 40
0.8458307507576529
 40
0.9307818073847616
 40
1.0
 40
1.0
 40
1.0
 40
1.0
 10
365.099282680108
 20
273.3657951166206
 30
0.0
 10
365.0658780550027
 20
273.3895881925325
 30
0.0
 10
365.0020109555335
 20
273.4350787418545
 30
0.0
 10
364.9126949558336
 20
273.5025921994954
 30
0.0
 10
364.8328260501032
 20
273.5643177097228
 30
0.0
 10
364.7627592279713
 20
273.6208363492729
 30
0.0
 10
364.7025253079752
 20
273.6721557835636
 30
0.0
 10
364.6516496422696
 20
273.7177831997854
 30
0.0
 10
364.6114282369043
 20
273.7589525728588
 30
0.0
 10
364.5890621030212
 20
273.7856600757277
 30
0.0
 10
364.5790202602362
 20
273.7976510861719
 30
0.0
  0
SPLINE
  5
157
330
1F
100
AcDbEntity
  8
0
  6
Continuous
 62
     7
370
    25
100
AcDbSpline
210
0.0
220
0.0
230
1.0
 70
     8
 71
     3
 72
    11
 73
     7
 74
     0
 42
0.000000001
 43
0.00000001
 40
0.0
 40
0.0
 40
0.0
 40
0.0
 40
0.2347233736739097
 40
0.4771583189289866
 40
0.7285562842030605
 40
1.0
 40
1.0
 40
1.0
 40
1.0
 10
365.7855457009413
 20
272.5478764467488
 30
0.0
 10
365.7842082905213
 20
272.574311360412
 30
0.0
 10
365.7814895305709
 20
272.6280496769978
 30
0.0
 10
365.7585102593623
 20
272.7073336478917
 30
0.0
 10
365.7223612997257
 20
272.7857947649852
 30
0.0
 10
365.689012330079
 20
272.8343280559021
 30
0.0
 10
365.6716985454926
 20
272.8595250845693
 30
0.0
  0
SPLINE
  5
158
330
1F
100
AcDbEntity
  8
0
  6
Continuous
 62
     7
370
    25
100
AcDbSpline
210
0.0
220
0.0
230
1.0
 70
     8
 71
     3
 72
    19
 73
    15
 74
     0
 42
0.000000001
 43
0.00000001
 40
0.0
 40
0.0
 40
0.0
 40
0.0
 40
0.0912636048966285
 40
0.1809303110850807
 40
0.2700882198317209
 40
0.3601561333877292
 40
0.4483425324981569
 40
0.5326658421383323
 40
0.6138337041070481
 40
0.6939815272835635
 40
0.7727159770890077
 40
0.8493351720622481
 40
0.9239673265752338
 40
1.0
 40
1.0
 40
1.0
 40
1.0
 10
365.1635204605567
 20
272.0098055332873
 30
0.0
 10
365.1913578268778
 20
272.0105808433519
 30
0.0
 10
365.2465454709993
 20
272.0121178973764
 30
0.0
 10
365.3277912199712
 20
272.026886910664
 30
0.0
 10
365.4066961405982
 20
272.0495764847498
 30
0.0
 10
365.4816339762538
 20
272.0820711869039
 30
0.0
 10
365.551570712293
 20
272.1213853846687
 30
0.0
 10
365.6128996430627
 20
272.1688708456932
 30
0.0
 10
365.6659186171613
 20
272.2220350465906
 30
0.0
 10
365.7092883139472
 20
272.2813464547301
 30
0.0
 10
365.7425623459587
 20
272.3451341538238
 30
0.0
 10
365.7681365794479
 20
272.4106080525378
 30
0.0
 10
365.7823288962648
 20
272.4787966823338
 30
0.0
 10
365.7844668083291
 20
272.5247076022028
 30
0.0
 10
365.7855457009413
 20
272.5478764467488
 30
0.0
  0
SPLINE
  5
159
330
1F
100
AcDbEntity
  8
0
  6
Continuous
 62
     7
370
    25
100
AcDbSpline
210
0.0
220
0.0
230
1.0
 70
     8
 71
     3
 72
    15
 73
    11
 74
     0
 42
0.000000001
 43
0.00000001
 40
0.0
 40
0.0
 40
0.0
 40
0.0
 40
0.1590042985173815
 40
0.3046460998968158
 40
0.4385469045795963
 40
0.5623222987759304
 40
0.6774325425257296
 40
0.7868973929387572
 40
0.8936108891042617
 40
1.0
 40
1.0
 40
1.0
 40
1.0
 10
364.4664451400439
 20
272.5389721999539
 30
0.0
 10
364.4914081124069
 20
272.4971852221805
 30
0.0
 10
364.5392362041197
 20
272.4171229853488
 30
0.0
 10
364.6190206513509
 20
272.308938905817
 30
0.0
 10
364.7016912207656
 20
272.2169889493284
 30
0.0
 10
364.7878601161998
 20
272.1418080267745
 30
0.0
 10
364.8770013691394
 20
272.0826179652249
 30
0.0
 10
364.9696969036005
 20
272.0407059407374
 30
0.0
 10
365.0656343461745
 20
272.0145657345076
 30
0.0
 10
365.1309248842308
 20
272.0113906559902
 30
0.0
 10
365.1635204605567
 20
272.0098055332873
 30
0.0
  0
LINE
  5
15A
330
1F
100
AcDbEntity
  8
0
  6
Continuous
 62
     7
370
    25
100
AcDbLine
 10
364.1980439674
 20
272.3780590335
 30
0.0
 11
364.4664436828
 21
272.538972948
 31
0.0
  0
SPLINE
  5
15B
330
1F
100
AcDbEntity
  8
0
  6
Continuous
 62
     7
370
    25
100
AcDbSpline
210
0.0
220
0.0
230
1.0
 70
     8
 71
     3
 72
    23
 73
    19
 74
     0
 42
0.000000001
 43
0.00000001
 40
0.0
 40
0.0
 40
0.0
 40
0.0
 40
0.0572082694335114
 40
0.113696059657493
 40
0.169177916417192
 40
0.2241592165805409
 40
0.2787198783810425
 40
0.3337942174469904
 40
0.389241459340005
 40
0.4458220733936209
 40
0.5037042811090214
 40
0.5642938918193656
 40
0.6279754158952267
 40
0.6950382596840543
 40
0.7653727258510095
 40
0.8396114430907369
 40
0.9175377500777926
 40
1.0
 40
1.0
 40
1.0
 40
1.0
 10
365.1635204605567
 20
271.6841645076462
 30
0.0
 10
365.1395398279954
 20
271.684628222381
 30
0.0
 10
365.0918805742317
 20
271.6855498118413
 30
0.0
 10
365.0213869728182
 20
271.6936971162243
 30
0.0
 10
364.9523174883313
 20
271.705224274482
 30
0.0
 10
364.8855388182004
 20
271.7235250379611
 30
0.0
 10
364.8201905947825
 20
271.7457291528493
 30
0.0
 10
364.756557032034
 20
271.7730689259919
 30
0.0
 10
364.6946072903218
 20
271.8058323873049
 30
0.0
 10
364.6339941972913
 20
271.8432928739323
 30
0.0
 10
364.5748719103453
 20
271.8868881136436
 30
0.0
 10
364.5177949644385
 20
271.9376640711268
 30
0.0
 10
364.4608906318656
 20
271.9942203506546
 30
0.0
 10
364.4058384937739
 20
272.0580927902756
 30
0.0
 10
364.3515249985822
 20
272.1282494797251
 30
0.0
 10
364.2990210127884
 20
272.2053468103786
 30
0.0
 10
364.2472397403224
 20
272.2889648384313
 30
0.0
 10
364.2147499945077
 20
272.34780673762
 30
0.0
 10
364.1980457009413
 20
272.378059740018
 30
0.0
  0
SPLINE
  5
15C
330
1F
100
AcDbEntity
  8
0
  6
Continuous
 62
     7
370
    25
100
AcDbSpline
210
0.0
220
0.0
230
1.0
 70
     8
 71
     3
 72
    23
 73
    19
 74
     0
 42
0.000000001
 43
0.00000001
 40
0.0
 40
0.0
 40
0.0
 40
0.0
 40
0.0614842551968916
 40
0.1217745277022088
 40
0.180919559813933
 40
0.2402561150782694
 40
0.3001144444023503
 40
0.3611459476126145
 40
0.4235005824125843
 40
0.4886693612807189
 40
0.5539541046535593
 40
0.617581261015262
 40
0.6802384268167393
 40
0.742187388772453
 40
0.8046632117692921
 40
0.8682589893126612
 40
0.9330202571803754
 40
1.0
 40
1.0
 40
1.0
 40
1.0
 10
366.0704815983772
 20
272.5434243233514
 30
0.0
 10
366.0698854802219
 20
272.5149596635861
 30
0.0
 10
366.0687048201231
 20
272.4585831085149
 30
0.0
 10
366.0551331340525
 20
272.3758017173433
 30
0.0
 10
366.0352488663693
 20
272.295400856987
 30
0.0
 10
366.0052793755713
 20
272.2183743478405
 30
0.0
 10
365.9687005105784
 20
272.1433130274062
 30
0.0
 10
365.9222854142999
 20
272.0721858606049
 30
0.0
 10
365.8684848717165
 20
272.0034186276011
 30
0.0
 10
365.8067685278389
 20
271.9388450318717
 30
0.0
 10
365.739235459309
 20
271.8795666969421
 30
0.0
 10
365.667858107722
 20
271.826835334035
 30
0.0
 10
365.592519645846
 20
271.7828676406692
 30
0.0
 10
365.5136287728548
 20
271.7469893768096
 30
0.0
 10
365.4311673674134
 20
271.7189282573394
 30
0.0
 10
365.3451631635064
 20
271.6985965831992
 30
0.0
 10
365.2554743926144
 20
271.6861181882991
 30
0.0
 10
365.1945139557593
 20
271.6848230046847
 30
0.0
 10
365.1635204605567
 20
271.6841645076462
 30
0.0
  0
SPLINE
  5
15D
330
1F
100
AcDbEntity
  8
0
  6
Continuous
 62
     7
370
    25
100
AcDbSpline
210
0.0
220
0.0
230
1.0
 70
     8
 71
     3
 72
    19
 73
    15
 74
     0
 42
0.000000001
 43
0.00000001
 40
0.0
 40
0.0
 40
0.0
 40
0.0
 40
0.0969723103815151
 40
0.1877734389628665
 40
0.2723961390136939
 40
0.3513209973752891
 40
0.4243347744514628
 40
0.4919087840005236
 40
0.5542332197967996
 40
0.6112676582441531
 40
0.7163478449915515
 40
0.8145400858216126
 40
0.908495456149184
 40
1.0
 40
1.0
 40
1.0
 40
1.0
 10
359.1353453804285
 20
267.2763820557232
 30
0.0
 10
359.1698040303573
 20
267.2513073938459
 30
0.0
 10
359.2365284300722
 20
267.2027537863986
 30
0.0
 10
359.3314678061348
 20
267.1298052766595
 30
0.0
 10
359.4175500463351
 20
267.0584605151671
 30
0.0
 10
359.4950773810023
 20
266.9891751144442
 30
0.0
 10
359.5648157193726
 20
266.9224746300766
 30
0.0
 10
359.6259913659848
 20
266.8575566022056
 30
0.0
 10
359.6792276617283
 20
266.7948861184153
 30
0.0
 10
359.7365402384743
 20
266.7145381390383
 30
0.0
 10
359.795103403325
 20
266.6158581554466
 30
0.0
 10
359.8453967707759
 20
266.4949557533377
 30
0.0
 10
359.8771089859668
 20
266.3735833768869
 30
0.0
 10
359.8812560035372
 20
266.2920068895131
 30
0.0
 10
359.8833021111977
 20
266.2517576566847
 30
0.0
  0
SPLINE
  5
15E
330
1F
100
AcDbEntity
  8
0
  6
Continuous
 62
     7
370
    25
100
AcDbSpline
210
0.0
220
0.0
230
1.0
 70
     8
 71
     3
 72
    15
 73
    11
 74
     0
 42
0.000000001
 43
0.00000001
 40
0.0
 40
0.0
 40
0.0
 40
0.0
 40
0.0525942815291348
 40
0.1249519739750369
 40
0.2180938989285894
 40
0.3335024107325127
 40
0.4687891785044515
 40
0.6249375859645997
 40
0.801683047928227
 40
1.0
 40
1.0
 40
1.0
 40
1.0
 10
358.7085775519029
 20
267.5924828169411
 30
0.0
 10
358.7155275111584
 20
267.5862806578082
 30
0.0
 10
358.7320390234898
 20
267.5715457473952
 30
0.0
 10
358.7622250418393
 20
267.5474227499541
 30
0.0
 10
358.8020874373765
 20
267.517665949372
 30
0.0
 10
358.8505852913012
 20
267.4808474551413
 30
0.0
 10
358.9086128265822
 20
267.4381378430778
 30
0.0
 10
358.9761764239419
 20
267.3900832091863
 30
0.0
 10
359.0525229572993
 20
267.3351235428015
 30
0.0
 10
359.1066992667225
 20
267.2966992023911
 30
0.0
 10
359.1353453804285
 20
267.2763820557232
 30
0.0
  0
SPLINE
  5
15F
330
1F
100
AcDbEntity
  8
0
  6
Continuous
 62
     7
370
    25
100
AcDbSpline
210
0.0
220
0.0
230
1.0
 70
     8
 71
     3
 72
    15
 73
    11
 74
     0
 42
0.000000001
 43
0.00000001
 40
0.0
 40
0.0
 40
0.0
 40
0.0
 40
0.1072852142689516
 40
0.2147458609696337
 40
0.3229385595552844
 40
0.4341161625174623
 40
0.5534123109627972
 40
0.6860729848107209
 40
0.834255992059582
 40
1.0
 40
1.0
 40
1.0
 40
1.0
 10
358.4993277522234
 20
268.0027141871334
 30
0.0
 10
358.4996843742422
 20
267.9857039173146
 30
0.0
 10
358.500398201427
 20
267.9516555625393
 30
0.0
 10
358.5103539107568
 20
267.9013532011953
 30
0.0
 10
358.5231440163113
 20
267.8511779147227
 30
0.0
 10
358.5434119751163
 20
267.8013552860089
 30
0.0
 10
358.5713930719677
 20
267.7510139745829
 30
0.0
 10
358.6081370529685
 20
267.6992871126548
 30
0.0
 10
358.6544134146138
 20
267.6457187769308
 30
0.0
 10
358.6898618472469
 20
267.6108778021493
 30
0.0
 10
358.7085775519029
 20
267.5924828169411
 30
0.0
  0
SPLINE
  5
160
330
1F
100
AcDbEntity
  8
0
  6
Continuous
 62
     7
370
    25
100
AcDbSpline
210
0.0
220
0.0
230
1.0
 70
     8
 71
     3
 72
    15
 73
    11
 74
     0
 42
0.000000001
 43
0.00000001
 40
0.0
 40
0.0
 40
0.0
 40
0.0
 40
0.1430730837303564
 40
0.2759029640930076
 40
0.4023708562739934
 40
0.5284136450935931
 40
0.650356379186952
 40
0.7658950861246939
 40
0.8807741308440185
 40
1.0
 40
1.0
 40
1.0
 40
1.0
 10
358.9648926560695
 20
268.4046773281591
 30
0.0
 10
358.9320935250303
 20
268.4035781432027
 30
0.0
 10
358.8688434905901
 20
268.4014584685607
 30
0.0
 10
358.7790452049783
 20
268.378308196189
 30
0.0
 10
358.6982242872423
 20
268.3418575086258
 30
0.0
 10
358.6287801746557
 20
268.2907717784962
 30
0.0
 10
358.5709616311952
 20
268.2302463065604
 30
0.0
 10
358.5291373936013
 20
268.1605969165996
 30
0.0
 10
358.5039640300434
 20
268.0836871656654
 30
0.0
 10
358.5008921906456
 20
268.0300372345645
 30
0.0
 10
358.4993277522234
 20
268.0027141871334
 30
0.0
  0
SPLINE
  5
161
330
1F
100
AcDbEntity
  8
0
  6
Continuous
 62
     7
370
    25
100
AcDbSpline
210
0.0
220
0.0
230
1.0
 70
     8
 71
     3
 72
    19
 73
    15
 74
     0
 42
0.000000001
 43
0.00000001
 40
0.0
 40
0.0
 40
0.0
 40
0.0
 40
0.0984694310255605
 40
0.1896291011376326
 40
0.2741840894379671
 40
0.3521831609671519
 40
0.4231988731834692
 40
0.4885509460005298
 40
0.5484733460279356
 40
0.6014401636178742
 40
0.701198082425765
 40
0.7995918021381797
 40
0.8985450984822199
 40
1.0
 40
1.0
 40
1.0
 40
1.0
 10
359.5850098435695
 20
267.9976260461078
 30
0.0
 10
359.5694560333982
 20
268.0176636438483
 30
0.0
 10
359.5395030316257
 20
268.0562513721302
 30
0.0
 10
359.4940284256879
 20
268.1102910655731
 30
0.0
 10
359.4511671522174
 20
268.1596545862913
 30
0.0
 10
359.408939289556
 20
268.2025308095758
 30
0.0
 10
359.3695750667262
 20
268.241267744818
 30
0.0
 10
359.3313688926879
 20
268.2744326670802
 30
0.0
 10
359.2948705883511
 20
268.3023505286488
 30
0.0
 10
359.2488631051222
 20
268.332144329469
 30
0.0
 10
359.1910620320718
 20
268.3616777291222
 30
0.0
 10
359.1185046313404
 20
268.3866686785213
 30
0.0
 10
359.0426799389873
 20
268.4016864846905
 30
0.0
 10
358.9910366304208
 20
268.4036721184127
 30
0.0
 10
358.9648926560695
 20
268.4046773281591
 30
0.0
  0
LINE
  5
162
330
1F
100
AcDbEntity
  8
0
  6
Continuous
 62
     7
370
    25
100
AcDbLine
 10
359.8425984632
 20
268.1928816477
 30
0.0
 11
359.5850095402
 21
267.997624282
 31
0.0
  0
SPLINE
  5
163
330
1F
100
AcDbEntity
  8
0
  6
Continuous
 62
     7
370
    25
100
AcDbSpline
210
0.0
220
0.0
230
1.0
 70
     8
 71
     3
 72
    19
 73
    15
 74
     0
 42
0.000000001
 43
0.00000001
 40
0.0
 40
0.0
 40
0.0
 40
0.0
 40
0.107232799360094
 40
0.2132518127818517
 40
0.3188304473075885
 40
0.4267935306342832
 40
0.4836459507827205
 40
0.5436038220211489
 40
0.608307649564084
 40
0.6771267602600426
 40
0.7506856360205002
 40
0.8287134184432879
 40
0.9121903482234578
 40
1.0
 40
1.0
 40
1.0
 40
1.0
 10
358.9966935374798
 20
268.7303183538001
 30
0.0
 10
359.0341078284644
 20
268.729027896278
 30
0.0
 10
359.1085129118347
 20
268.7264615881377
 30
0.0
 10
359.2179589859585
 20
268.7041481132976
 30
0.0
 10
359.323333350122
 20
268.6672267896042
 30
0.0
 10
359.408099740351
 20
268.6253270784388
 30
0.0
 10
359.4744416025343
 20
268.5834792941847
 30
0.0
 10
359.5250354386164
 20
268.5453613107317
 30
0.0
 10
359.5763048404013
 20
268.5014781764979
 30
0.0
 10
359.6286633615674
 20
268.4517130032675
 30
0.0
 10
359.6812238169158
 20
268.395609164779
 30
0.0
 10
359.734766520023
 20
268.3335508969828
 30
0.0
 10
359.7894166781584
 20
268.2659174498773
 30
0.0
 10
359.8245737798422
 20
268.2176352241929
 30
0.0
 10
359.8425969829926
 20
268.1928834579668
 30
0.0
  0
SPLINE
  5
164
330
1F
100
AcDbEntity
  8
0
  6
Continuous
 62
     7
370
    25
100
AcDbSpline
210
0.0
220
0.0
230
1.0
 70
     8
 71
     3
 72
    19
 73
    15
 74
     0
 42
0.000000001
 43
0.00000001
 40
0.0
 40
0.0
 40
0.0
 40
0.0
 40
0.0837853706537103
 40
0.1657798879221421
 40
0.2462800078932604
 40
0.3274609277363898
 40
0.4087969540320674
 40
0.4897152412309886
 40
0.5713760321300524
 40
0.6555233211112771
 40
0.7410194827999774
 40
0.8265467605037606
 40
0.9119888516548373
 40
1.0
 40
1.0
 40
1.0
 40
1.0
 10
358.2143918547875
 20
267.9893578169411
 30
0.0
 10
358.2155758658029
 20
268.0229491124391
 30
0.0
 10
358.2179185804308
 20
268.089413713113
 30
0.0
 10
358.2377310496689
 20
268.1865059664427
 30
0.0
 10
358.2690028889127
 20
268.2792036449186
 30
0.0
 10
358.3128132514728
 20
268.3665890190832
 30
0.0
 10
358.3692895644772
 20
268.4463867303174
 30
0.0
 10
358.4346455555085
 20
268.5195146792226
 30
0.0
 10
358.5124888323096
 20
268.5809904645229
 30
0.0
 10
358.5978987119843
 20
268.6347042603475
 30
0.0
 10
358.6913855638022
 20
268.6767466353567
 30
0.0
 10
358.7893487404558
 20
268.7084612387881
 30
0.0
 10
358.8919439415071
 20
268.7264310654077
 30
0.0
 10
358.9614339279156
 20
268.7290098592928
 30
0.0
 10
358.9966935374798
 20
268.7303183538001
 30
0.0
  0
SPLINE
  5
165
330
1F
100
AcDbEntity
  8
0
  6
Continuous
 62
     7
370
    25
100
AcDbSpline
210
0.0
220
0.0
230
1.0
 70
     8
 71
     3
 72
    15
 73
    11
 74
     0
 42
0.000000001
 43
0.00000001
 40
0.0
 40
0.0
 40
0.0
 40
0.0
 40
0.1335067689985227
 40
0.2625589787303737
 40
0.3882644471488808
 40
0.5126673546814348
 40
0.6337222699657629
 40
0.7553938601370896
 40
0.8775529450912849
 40
1.0
 40
1.0
 40
1.0
 40
1.0
 10
358.3918407730567
 20
267.5059844195052
 30
0.0
 10
358.3778049641684
 20
267.5246725029373
 30
0.0
 10
358.3502016622909
 20
267.5614251270712
 30
0.0
 10
358.3137653573334
 20
267.6188698194748
 30
0.0
 10
358.2827962596519
 20
267.6776737816675
 30
0.0
 10
358.2585190012141
 20
267.7379950302367
 30
0.0
 10
358.2380754312667
 20
267.7989867157213
 30
0.0
 10
358.2243250226871
 20
267.861444631463
 30
0.0
 10
358.2157149697706
 20
267.9250885210701
 30
0.0
 10
358.2148332391299
 20
267.9679179109206
 30
0.0
 10
358.2143918547875
 20
267.9893578169411
 30
0.0
  0
SPLINE
  5
166
330
1F
100
AcDbEntity
  8
0
  6
Continuous
 62
     7
370
    25
100
AcDbSpline
210
0.0
220
0.0
230
1.0
 70
     8
 71
     3
 72
    15
 73
    11
 74
     0
 42
0.000000001
 43
0.00000001
 40
0.0
 40
0.0
 40
0.0
 40
0.0
 40
0.1815353013762898
 40
0.3470816724816302
 40
0.4955678164315564
 40
0.6283573018772152
 40
0.7455196699921566
 40
0.8458307507576547
 40
0.9307818073847555
 40
1.0
 40
1.0
 40
1.0
 40
1.0
 10
358.9121031929285
 20
267.0741284499539
 30
0.0
 10
358.8786985678232
 20
267.0979215258657
 30
0.0
 10
358.814831468354
 20
267.1434120751879
 30
0.0
 10
358.7255154686542
 20
267.2109255328288
 30
0.0
 10
358.6456465629237
 20
267.2726510430561
 30
0.0
 10
358.5755797407919
 20
267.3291696826062
 30
0.0
 10
358.5153458207958
 20
267.3804891168969
 30
0.0
 10
358.4644701550901
 20
267.4261165331187
 30
0.0
 10
358.4242487497248
 20
267.4672859061922
 30
0.0
 10
358.4018826158417
 20
267.493993409061
 30
0.0
 10
358.3918407730567
 20
267.5059844195052
 30
0.0
  0
SPLINE
  5
167
330
1F
100
AcDbEntity
  8
0
  6
Continuous
 62
     7
370
    25
100
AcDbSpline
210
0.0
220
0.0
230
1.0
 70
     8
 71
     3
 72
    15
 73
    11
 74
     0
 42
0.000000001
 43
0.00000001
 40
0.0
 40
0.0
 40
0.0
 40
0.0
 40
0.0902792146500133
 40
0.1895299184469643
 40
0.2991978724002877
 40
0.4189258867738203
 40
0.5483762854012534
 40
0.6881363695386863
 40
0.8390835016589175
 40
0.9999999999999999
 40
0.9999999999999999
 40
0.9999999999999999
 40
0.9999999999999999
 10
359.4845190583131
 20
266.5678584179026
 30
0.0
 10
359.4703035725921
 20
266.5860437507429
 30
0.0
 10
359.4404599384863
 20
266.6242215823012
 30
0.0
 10
359.3891541949198
 20
266.6810497601968
 30
0.0
 10
359.3289506483713
 20
266.739667897389
 30
0.0
 10
359.2619095664157
 20
266.8023143276216
 30
0.0
 10
359.1855888358247
 20
266.8660754003315
 30
0.0
 10
359.1023788763304
 20
266.9339916238904
 30
0.0
 10
359.0101552328396
 20
267.0034801973541
 30
0.0
 10
358.9454764037647
 20
267.0500824532428
 30
0.0
 10
358.9121031929285
 20
267.0741284499539
 30
0.0
  0
SPLINE
  5
168
330
1F
100
AcDbEntity
  8
0
  6
Continuous
 62
     7
370
    25
100
AcDbSpline
210
0.0
220
0.0
230
1.0
 70
     8
 71
     3
 72
    11
 73
     7
 74
     0
 42
0.000000001
 43
0.00000001
 40
0.0
 40
0.0
 40
0.0
 40
0.0
 40
0.234723373673898
 40
0.4771583189289822
 40
0.7285562842030636
 40
1.0
 40
1.0
 40
1.0
 40
1.0
 10
359.5983662137618
 20
266.2562097800822
 30
0.0
 10
359.5970288033417
 20
266.2826446937453
 30
0.0
 10
359.5943100433914
 20
266.3363830103311
 30
0.0
 10
359.5713307721828
 20
266.4156669812251
 30
0.0
 10
359.5351818125462
 20
266.4941280983185
 30
0.0
 10
359.5018328428996
 20
266.5426613892355
 30
0.0
 10
359.4845190583131
 20
266.5678584179026
 30
0.0
  0
SPLINE
  5
169
330
1F
100
AcDbEntity
  8
0
  6
Continuous
 62
     7
370
    25
100
AcDbSpline
210
0.0
220
0.0
230
1.0
 70
     8
 71
     3
 72
    19
 73
    15
 74
     0
 42
0.000000001
 43
0.00000001
 40
0.0
 40
0.0
 40
0.0
 40
0.0
 40
0.0912636048966203
 40
0.1809303110850797
 40
0.2700882198317219
 40
0.36015613338772
 40
0.4483425324981512
 40
0.5326658421383279
 40
0.6138337041070433
 40
0.6939815272835541
 40
0.7727159770889981
 40
0.8493351720622481
 40
0.9239673265752263
 40
0.9999999999999999
 40
0.9999999999999999
 40
0.9999999999999999
 40
0.9999999999999999
 10
358.9763409733772
 20
265.7181388666207
 30
0.0
 10
359.0041783396984
 20
265.7189141766853
 30
0.0
 10
359.0593659838198
 20
265.7204512307096
 30
0.0
 10
359.1406117327917
 20
265.7352202439973
 30
0.0
 10
359.2195166534187
 20
265.7579098180831
 30
0.0
 10
359.2944544890743
 20
265.7904045202372
 30
0.0
 10
359.3643912251136
 20
265.829718718002
 30
0.0
 10
359.4257201558833
 20
265.8772041790265
 30
0.0
 10
359.4787391299818
 20
265.9303683799239
 30
0.0
 10
359.5221088267677
 20
265.9896797880634
 30
0.0
 10
359.5553828587793
 20
266.0534674871572
 30
0.0
 10
359.5809570922684
 20
266.1189413858712
 30
0.0
 10
359.5951494090853
 20
266.1871300156672
 30
0.0
 10
359.5972873211496
 20
266.2330409355362
 30
0.0
 10
359.5983662137618
 20
266.2562097800822
 30
0.0
  0
SPLINE
  5
16A
330
1F
100
AcDbEntity
  8
0
  6
Continuous
 62
     7
370
    25
100
AcDbSpline
210
0.0
220
0.0
230
1.0
 70
     8
 71
     3
 72
    15
 73
    11
 74
     0
 42
0.000000001
 43
0.00000001
 40
0.0
 40
0.0
 40
0.0
 40
0.0
 40
0.159004298517378
 40
0.3046460998968111
 40
0.4385469045795919
 40
0.5623222987759264
 40
0.6774325425257259
 40
0.7868973929387499
 40
0.8936108891042621
 40
1.0
 40
1.0
 40
1.0
 40
1.0
 10
358.2792656528644
 20
266.2473055332873
 30
0.0
 10
358.3042286252274
 20
266.2055185555138
 30
0.0
 10
358.3520567169401
 20
266.1254563186822
 30
0.0
 10
358.4318411641714
 20
266.0172722391503
 30
0.0
 10
358.5145117335862
 20
265.9253222826618
 30
0.0
 10
358.6006806290203
 20
265.8501413601078
 30
0.0
 10
358.6898218819599
 20
265.7909512985582
 30
0.0
 10
358.7825174164211
 20
265.7490392740707
 30
0.0
 10
358.8784548589949
 20
265.7228990678409
 30
0.0
 10
358.9437453970513
 20
265.7197239893235
 30
0.0
 10
358.9763409733772
 20
265.7181388666207
 30
0.0
  0
LINE
  5
16B
330
1F
100
AcDbEntity
  8
0
  6
Continuous
 62
     7
370
    25
100
AcDbLine
 10
358.0108657729
 20
266.0863938967
 30
0.0
 11
358.2792654883
 21
266.2473040859
 31
0.0
  0
SPLINE
  5
16C
330
1F
100
AcDbEntity
  8
0
  6
Continuous
 62
     7
370
    25
100
AcDbSpline
210
0.0
220
0.0
230
1.0
 70
     8
 71
     3
 72
    23
 73
    19
 74
     0
 42
0.000000001
 43
0.00000001
 40
0.0
 40
0.0
 40
0.0
 40
0.0
 40
0.0572082694335115
 40
0.113696059657493
 40
0.1691779164171975
 40
0.2241592165805464
 40
0.278719878381048
 40
0.3337942174469929
 40
0.3892414593400051
 40
0.445822073393621
 40
0.5037042811090248
 40
0.5642938918193654
 40
0.6279754158952263
 40
0.6950382596840541
 40
0.7653727258510169
 40
0.8396114430907369
 40
0.9175377500777926
 40
1.0
 40
1.0
 40
1.0
 40
1.0
 10
358.9763409733772
 20
265.3924978409796
 30
0.0
 10
358.9523603408159
 20
265.3929615557144
 30
0.0
 10
358.9047010870522
 20
265.3938831451747
 30
0.0
 10
358.8342074856387
 20
265.4020304495577
 30
0.0
 10
358.7651380011519
 20
265.4135576078154
 30
0.0
 10
358.6983593310209
 20
265.4318583712945
 30
0.0
 10
358.633011107603
 20
265.4540624861826
 30
0.0
 10
358.5693775448545
 20
265.4814022593253
 30
0.0
 10
358.5074278031424
 20
265.5141657206382
 30
0.0
 10
358.4468147101118
 20
265.5516262072657
 30
0.0
 10
358.3876924231658
 20
265.595221446977
 30
0.0
 10
358.3306154772589
 20
265.6459974044602
 30
0.0
 10
358.2737111446861
 20
265.702553683988
 30
0.0
 10
358.2186590065945
 20
265.7664261236089
 30
0.0
 10
358.1643455114027
 20
265.8365828130585
 30
0.0
 10
358.1118415256089
 20
265.9136801437119
 30
0.0
 10
358.0600602531429
 20
265.9972981717647
 30
0.0
 10
358.0275705073282
 20
266.0561400709533
 30
0.0
 10
358.0108662137618
 20
266.0863930733514
 30
0.0
  0
SPLINE
  5
16D
330
1F
100
AcDbEntity
  8
0
  6
Continuous
 62
     7
370
    25
100
AcDbSpline
210
0.0
220
0.0
230
1.0
 70
     8
 71
     3
 72
    23
 73
    19
 74
     0
 42
0.000000001
 43
0.00000001
 40
0.0
 40
0.0
 40
0.0
 40
0.0
 40
0.0614842551968917
 40
0.1217745277022097
 40
0.1809195598139328
 40
0.2402561150782693
 40
0.3001144444023502
 40
0.3611459476126103
 40
0.4235005824125871
 40
0.4886693612807184
 40
0.5539541046535628
 40
0.6175812610152613
 40
0.6802384268167387
 40
0.7421873887724526
 40
0.8046632117692919
 40
0.8682589893126659
 40
0.9330202571803753
 40
1.0
 40
1.0
 40
1.0
 40
1.0
 10
359.8833021111977
 20
266.2517576566847
 30
0.0
 10
359.8827059930425
 20
266.2232929969194
 30
0.0
 10
359.8815253329436
 20
266.1669164418482
 30
0.0
 10
359.8679536468729
 20
266.0841350506766
 30
0.0
 10
359.8480693791898
 20
266.0037341903204
 30
0.0
 10
359.8180998883919
 20
265.9267076811739
 30
0.0
 10
359.781521023399
 20
265.8516463607396
 30
0.0
 10
359.7351059271205
 20
265.7805191939383
 30
0.0
 10
359.681305384537
 20
265.7117519609344
 30
0.0
 10
359.6195890406594
 20
265.6471783652051
 30
0.0
 10
359.5520559721294
 20
265.5879000302754
 30
0.0
 10
359.4806786205425
 20
265.5351686673683
 30
0.0
 10
359.4053401586665
 20
265.4912009740025
 30
0.0
 10
359.3264492856753
 20
265.4553227101429
 30
0.0
 10
359.2439878802339
 20
265.4272615906727
 30
0.0
 10
359.1579836763269
 20
265.4069299165325
 30
0.0
 10
359.0682949054349
 20
265.3944515216324
 30
0.0
 10
359.0073344685798
 20
265.3931563380181
 30
0.0
 10
358.9763409733772
 20
265.3924978409796
 30
0.0
  0
LINE
  5
16E
330
1F
100
AcDbEntity
  8
0
  6
Continuous
 62
     7
370
    25
100
AcDbLine
 10
374.0486838173
 20
272.0912154058
 30
0.0
 11
374.0486838173
 21
271.765576605
 31
0.0
  0
LINE
  5
16F
330
1F
100
AcDbEntity
  8
0
  6
Continuous
 62
     7
370
    25
100
AcDbLine
 10
372.5425936531
 20
272.0912154058
 30
0.0
 11
374.0486838173
 21
272.0912154058
 31
0.0
  0
LINE
  5
170
330
1F
100
AcDbEntity
  8
0
  6
Continuous
 62
     7
370
    25
100
AcDbLine
 10
372.5425936531
 20
273.312369291
 30
0.0
 11
372.5425936531
 21
272.0912154058
 31
0.0
  0
LINE
  5
171
330
1F
100
AcDbEntity
  8
0
  6
Continuous
 62
     7
370
    25
100
AcDbLine
 10
374.0486838173
 20
273.312369291
 30
0.0
 11
372.5425936531
 21
273.312369291
 31
0.0
  0
LINE
  5
172
330
1F
100
AcDbEntity
  8
0
  6
Continuous
 62
     7
370
    25
100
AcDbLine
 10
374.0486838173
 20
273.6380118171
 30
0.0
 11
374.0486838173
 21
273.312369291
 31
0.0
  0
LINE
  5
173
330
1F
100
AcDbEntity
  8
0
  6
Continuous
 62
     7
370
    25
100
AcDbLine
 10
372.5425936531
 20
273.6380118171
 30
0.0
 11
374.0486838173
 21
273.6380118171
 31
0.0
  0
LINE
  5
174
330
1F
100
AcDbEntity
  8
0
  6
Continuous
 62
     7
370
    25
100
AcDbLine
 10
372.5425936531
 20
274.614931945
 30
0.0
 11
372.5425936531
 21
273.6380118171
 31
0.0
  0
LINE
  5
175
330
1F
100
AcDbEntity
  8
0
  6
Continuous
 62
     7
370
    25
100
AcDbLine
 10
374.0486838173
 20
274.614931945
 30
0.0
 11
372.5425936531
 21
274.614931945
 31
0.0
  0
LINE
  5
176
330
1F
100
AcDbEntity
  8
0
  6
Continuous
 62
     7
370
    25
100
AcDbLine
 10
374.0486838173
 20
274.9405744711
 30
0.0
 11
374.0486838173
 21
274.614931945
 31
0.0
  0
LINE
  5
177
330
1F
100
AcDbEntity
  8
0
  6
Continuous
 62
     7
370
    25
100
AcDbLine
 10
372.2576610993
 20
274.9405744711
 30
0.0
 11
374.0486838173
 21
274.9405744711
 31
0.0
  0
LINE
  5
178
330
1F
100
AcDbEntity
  8
0
  6
Continuous
 62
     7
370
    25
100
AcDbLine
 10
372.2576610993
 20
271.765576605
 30
0.0
 11
372.2576610993
 21
274.9405744711
 31
0.0
  0
LINE
  5
179
330
1F
100
AcDbEntity
  8
0
  6
Continuous
 62
     7
370
    25
100
AcDbLine
 10
374.0486838173
 20
271.765576605
 30
0.0
 11
372.2576610993
 21
271.765576605
 31
0.0
  0
LINE
  5
17A
330
1F
100
AcDbEntity
  8
0
  6
Continuous
 62
     7
370
    25
100
AcDbLine
 10
369.8560558509
 20
273.2309605221
 30
0.0
 11
369.8560558509
 21
271.765576605
 31
0.0
  0
LINE
  5
17B
330
1F
100
AcDbEntity
  8
0
  6
Continuous
 62
     7
370
    25
100
AcDbLine
 10
370.0875677418
 20
273.2309605221
 30
0.0
 11
369.8560558509
 21
273.2309605221
 31
0.0
  0
LINE
  5
17C
330
1F
100
AcDbEntity
  8
0
  6
Continuous
 62
     7
370
    25
100
AcDbLine
 10
371.2540231895
 20
271.765576605
 30
0.0
 11
370.0875677418
 21
273.2309605221
 31
0.0
  0
LINE
  5
17D
330
1F
100
AcDbEntity
  8
0
  6
Continuous
 62
     7
370
    25
100
AcDbLine
 10
371.606376047
 20
271.765576605
 30
0.0
 11
371.2540231895
 21
271.765576605
 31
0.0
  0
LINE
  5
17E
330
1F
100
AcDbEntity
  8
0
  6
Continuous
 62
     7
370
    25
100
AcDbLine
 10
370.4399205994
 20
273.2309605221
 30
0.0
 11
371.606376047
 21
271.765576605
 31
0.0
  0
SPLINE
  5
17F
330
1F
100
AcDbEntity
  8
0
  6
Continuous
 62
     7
370
    25
100
AcDbSpline
210
0.0
220
0.0
230
1.0
 70
     8
 71
     3
 72
    23
 73
    19
 74
     0
 42
0.000000001
 43
0.00000001
 40
0.0
 40
0.0
 40
0.0
 40
0.0
 40
0.0787802355821391
 40
0.1537206442085869
 40
0.2267135303087798
 40
0.299191166065935
 40
0.3711899968376692
 40
0.4430064143534105
 40
0.5166891732948818
 40
0.5932172166234096
 40
0.6338729178078484
 40
0.6769891422899751
 40
0.7228995063258201
 40
0.7719586105061472
 40
0.8242113233348352
 40
0.8793786506272039
 40
0.9379481193304169
 40
1.0
 40
1.0
 40
1.0
 40
1.0
 10
371.5656739060695
 20
274.0914912304027
 30
0.0
 10
371.5643413149282
 20
274.0491865283627
 30
0.0
 10
371.5617410844619
 20
273.9666390974929
 30
0.0
 10
371.5374975975521
 20
273.8468410122149
 30
0.0
 10
371.4977860403697
 20
273.7350907053625
 30
0.0
 10
371.4430641996256
 20
273.6315288838249
 30
0.0
 10
371.3733779609426
 20
273.5381742269626
 30
0.0
 10
371.2896261861559
 20
273.4561771710797
 30
0.0
 10
371.191762152876
 20
273.387560964658
 30
0.0
 10
371.100658416274
 20
273.3399787775359
 30
0.0
 10
371.0201819636922
 20
273.3095052104263
 30
0.0
 10
370.9539303156631
 20
273.2880636563185
 30
0.0
 10
370.8816609860775
 20
273.27149744496
 30
0.0
 10
370.8040664039708
 20
273.2566564682824
 30
0.0
 10
370.7208236593457
 20
273.2454517169234
 30
0.0
 10
370.6321322664713
 20
273.237245163369
 30
0.0
 10
370.5379289717783
 20
273.2321161334785
 30
0.0
 10
370.4732142445793
 20
273.2313523147578
 30
0.0
 10
370.4399227041465
 20
273.2309593794411
 30
0.0
  0
SPLINE
  5
180
330
1F
100
AcDbEntity
  8
0
  6
Continuous
 62
     7
370
    25
100
AcDbSpline
210
0.0
220
0.0
230
1.0
 70
     8
 71
     3
 72
    23
 73
    19
 74
     0
 42
0.000000001
 43
0.00000001
 40
0.0
 40
0.0
 40
0.0
 40
0.0
 40
0.0642168426314353
 40
0.1270637656931234
 40
0.1887445383478251
 40
0.2491321028350393
 40
0.309452532710625
 40
0.369826676247679
 40
0.4306501418384719
 40
0.4923519318794675
 40
0.5540721062625161
 40
0.6156897837449734
 40
0.6767977025065369
 40
0.7384390482469388
 40
0.8013169100648938
 40
0.8651845117115393
 40
0.9316413244190754
 40
1.0
 40
1.0
 40
1.0
 40
1.0
 10
370.9258401720951
 20
274.8973255653386
 30
0.0
 10
370.9490690382764
 20
274.8915862853284
 30
0.0
 10
370.9950312358687
 20
274.8802301597298
 30
0.0
 10
371.0612073672048
 20
274.8562275218399
 30
0.0
 10
371.1242667896468
 20
274.8284511480732
 30
0.0
 10
371.1839475588529
 20
274.7958269160703
 30
0.0
 10
371.2399507408613
 20
274.7581126516531
 30
0.0
 10
371.2928537799394
 20
274.7159594263013
 30
0.0
 10
371.3428967360055
 20
274.669597889638
 30
0.0
 10
371.3880557862406
 20
274.6178591405606
 30
0.0
 10
371.4306362117064
 20
274.563578878208
 30
0.0
 10
371.4665487514604
 20
274.5048833273592
 30
0.0
 10
371.4975063437801
 20
274.4435046559624
 30
0.0
 10
371.5221538842017
 20
274.3788186412843
 30
0.0
 10
371.5420003315666
 20
274.3114526053803
 30
0.0
 10
371.5559941344245
 20
274.2407963397778
 30
0.0
 10
371.5643862832039
 20
274.1671717409517
 30
0.0
 10
371.5652406807417
 20
274.116954209405
 30
0.0
 10
371.5656739060695
 20
274.0914912304027
 30
0.0
  0
SPLINE
  5
181
330
1F
100
AcDbEntity
  8
0
  6
Continuous
 62
     7
370
    25
100
AcDbSpline
210
0.0
220
0.0
230
1.0
 70
     8
 71
     3
 72
    15
 73
    11
 74
     0
 42
0.000000001
 43
0.00000001
 40
0.0
 40
0.0
 40
0.0
 40
0.0
 40
0.1762577548177976
 40
0.3384344138804647
 40
0.4848220507878389
 40
0.6171575782663229
 40
0.7346983606124735
 40
0.8373851838323616
 40
0.9263724209295829
 40
1.0
 40
1.0
 40
1.0
 40
1.0
 10
370.2065042345952
 20
274.9405747640565
 30
0.0
 10
370.2489051154611
 20
274.9404336253388
 30
0.0
 10
370.3303195036036
 20
274.9401626233664
 30
0.0
 10
370.4469538274299
 20
274.9386515384426
 30
0.0
 10
370.5529326939943
 20
274.9343205157644
 30
0.0
 10
370.6482006910891
 20
274.9305934436102
 30
0.0
 10
370.7327560709605
 20
274.9237971825528
 30
0.0
 10
370.8068581132819
 20
274.9173014526655
 30
0.0
 10
370.8701655245865
 20
274.9087982032446
 30
0.0
 10
370.9084885468396
 20
274.9009011409829
 30
0.0
 10
370.9258401720951
 20
274.8973255653386
 30
0.0
  0
LINE
  5
182
330
1F
100
AcDbEntity
  8
0
  6
Continuous
 62
     7
370
    25
100
AcDbLine
 10
369.5711232971
 20
274.9405744711
 30
0.0
 11
370.2065013599
 21
274.9405744711
 31
0.0
  0
LINE
  5
183
330
1F
100
AcDbEntity
  8
0
  6
Continuous
 62
     7
370
    25
100
AcDbLine
 10
369.5711232971
 20
271.765576605
 30
0.0
 11
369.5711232971
 21
274.9405744711
 31
0.0
  0
LINE
  5
184
330
1F
100
AcDbEntity
  8
0
  6
Continuous
 62
     7
370
    25
100
AcDbLine
 10
369.8560558509
 20
271.765576605
 30
0.0
 11
369.5711232971
 21
271.765576605
 31
0.0
  0
CIRCLE
  5
185
330
1F
100
AcDbEntity
  8
0
  6
Continuous
 62
     7
370
    25
100
AcDbCircle
 10
364.5345224178
 20
252.3616885508
 30
0.0
 40
7.620000000000005
  0
ARC
  5
186
330
1F
100
AcDbEntity
  8
0
  6
Continuous
 62
     7
370
    25
100
AcDbCircle
 10
215.7540224179
 20
227.8506885508
 30
0.0
 40
3.378199999999993
100
AcDbArc
 50
270.0
 51
90.0
  0
LINE
  5
187
330
1F
100
AcDbEntity
  8
0
  6
Continuous
 62
     7
370
    25
100
AcDbLine
 10
215.7540209841
 20
231.2288886628
 30
0.0
 11
203.0540220689
 21
231.2288886628
 31
0.0
  0
LINE
  5
188
330
1F
100
AcDbEntity
  8
0
  6
Continuous
 62
     7
370
    25
100
AcDbLine
 10
203.0540220689
 20
322.084685717
 30
0.0
 11
203.0540220689
 21
231.2288886628
 31
0.0
  0
LINE
  5
189
330
1F
100
AcDbEntity
  8
0
  6
Continuous
 62
     7
370
    25
100
AcDbLine
 10
209.4040252518
 20
328.4346888999
 30
0.0
 11
203.0540220689
 21
322.084685717
 31
0.0
  0
LINE
  5
18A
330
1F
100
AcDbEntity
  8
0
  6
Continuous
 62
     7
370
    25
100
AcDbLine
 10
242.316070969
 20
328.4346888999
 30
0.0
 11
209.4040252518
 21
328.4346888999
 31
0.0
  0
LINE
  5
18B
330
1F
100
AcDbEntity
  8
0
  6
Continuous
 62
     7
370
    25
100
AcDbLine
 10
242.316070969
 20
328.4346888999
 30
0.0
 11
242.316070969
 21
315.7346899847
 31
0.0
  0
ARC
  5
18C
330
1F
100
AcDbEntity
  8
0
  6
Continuous
 62
     7
370
    25
100
AcDbCircle
 10
245.6942724179
 20
315.7346885508
 30
0.0
 40
3.378199999999993
100
AcDbArc
 50
180.0
 51
0.0
  0
LINE
  5
18D
330
1F
100
AcDbEntity
  8
0
  6
Continuous
 62
     7
370
    25
100
AcDbLine
 10
249.0724735211
 20
315.7346899847
 30
0.0
 11
249.0724735211
 21
328.4346888999
 31
0.0
  0
LINE
  5
18E
330
1F
100
AcDbEntity
  8
0
  6
Continuous
 62
     7
370
    25
100
AcDbLine
 10
358.2035713147
 20
328.4346888999
 30
0.0
 11
249.0724735211
 21
328.4346888999
 31
0.0
  0
LINE
  5
18F
330
1F
100
AcDbEntity
  8
0
  6
Continuous
 62
     7
370
    25
100
AcDbLine
 10
358.2035713147
 20
328.4346888999
 30
0.0
 11
358.2035713147
 21
315.7346899847
 31
0.0
  0
ARC
  5
190
330
1F
100
AcDbEntity
  8
0
  6
Continuous
 62
     7
370
    25
100
AcDbCircle
 10
361.5817724179
 20
315.7346885508
 30
0.0
 40
3.378199999999993
100
AcDbArc
 50
180.0
 51
0.0
  0
LINE
  5
191
330
1F
100
AcDbEntity
  8
0
  6
Continuous
 62
     7
370
    25
100
AcDbLine
 10
364.9599738669
 20
315.7346899847
 30
0.0
 11
364.9599738669
 21
328.4346888999
 31
0.0
  0
LINE
  5
192
330
1F
100
AcDbEntity
  8
0
  6
Continuous
 62
     7
370
    25
100
AcDbLine
 10
397.8720195841
 20
328.4346888999
 30
0.0
 11
364.9599738669
 21
328.4346888999
 31
0.0
  0
LINE
  5
193
330
1F
100
AcDbEntity
  8
0
  6
Continuous
 62
     7
370
    25
100
AcDbLine
 10
404.222022767
 20
322.084685717
 30
0.0
 11
397.8720195841
 21
328.4346888999
 31
0.0
  0
LINE
  5
194
330
1F
100
AcDbEntity
  8
0
  6
Continuous
 62
     7
370
    25
100
AcDbLine
 10
404.222022767
 20
231.2288886628
 30
0.0
 11
404.222022767
 21
322.084685717
 31
0.0
  0
LINE
  5
195
330
1F
100
AcDbEntity
  8
0
  6
Continuous
 62
     7
370
    25
100
AcDbLine
 10
404.222022767
 20
231.2288886628
 30
0.0
 11
391.5220238518
 21
231.2288886628
 31
0.0
  0
ARC
  5
196
330
1F
100
AcDbEntity
  8
0
  6
Continuous
 62
     7
370
    25
100
AcDbCircle
 10
391.5220224179
 20
227.8506885508
 30
0.0
 40
3.378199999999993
100
AcDbArc
 50
90.0
 51
270.0
  0
LINE
  5
197
330
1F
100
AcDbEntity
  8
0
  6
Continuous
 62
     7
370
    25
100
AcDbLine
 10
391.5220238518
 20
224.4724884389
 30
0.0
 11
404.222022767
 21
224.4724884389
 31
0.0
  0
LINE
  5
198
330
1F
100
AcDbEntity
  8
0
  6
Continuous
 62
     7
370
    25
100
AcDbLine
 10
404.222022767
 20
133.6166913847
 30
0.0
 11
404.222022767
 21
224.4724884389
 31
0.0
  0
LINE
  5
199
330
1F
100
AcDbEntity
  8
0
  6
Continuous
 62
     7
370
    25
100
AcDbLine
 10
397.8720195841
 20
127.2666882018
 30
0.0
 11
404.222022767
 21
133.6166913847
 31
0.0
  0
LINE
  5
19A
330
1F
100
AcDbEntity
  8
0
  6
Continuous
 62
     7
370
    25
100
AcDbLine
 10
351.4662236225
 20
127.2666882018
 30
0.0
 11
397.8720195841
 21
127.2666882018
 31
0.0
  0
LINE
  5
19B
330
1F
100
AcDbEntity
  8
0
  6
Continuous
 62
     7
370
    25
100
AcDbLine
 10
351.4662236225
 20
127.2666882018
 30
0.0
 11
351.4662236225
 21
139.966687117
 31
0.0
  0
ARC
  5
19C
330
1F
100
AcDbEntity
  8
0
  6
Continuous
 62
     7
370
    25
100
AcDbCircle
 10
348.0880224179
 20
139.9666885508
 30
0.0
 40
3.378200000000049
100
AcDbArc
 50
0.0
 51
180.0
  0
LINE
  5
19D
330
1F
100
AcDbEntity
  8
0
  6
Continuous
 62
     7
370
    25
100
AcDbLine
 10
344.7098210703
 20
139.966687117
 30
0.0
 11
344.7098210703
 21
127.2666882018
 31
0.0
  0
LINE
  5
19E
330
1F
100
AcDbEntity
  8
0
  6
Continuous
 62
     7
370
    25
100
AcDbLine
 10
262.5662237655
 20
127.2666882018
 30
0.0
 11
344.7098210703
 21
127.2666882018
 31
0.0
  0
LINE
  5
19F
330
1F
100
AcDbEntity
  8
0
  6
Continuous
 62
     7
370
    25
100
AcDbLine
 10
262.5662237655
 20
127.2666882018
 30
0.0
 11
262.5662237655
 21
139.966687117
 31
0.0
  0
ARC
  5
1A0
330
1F
100
AcDbEntity
  8
0
  6
Continuous
 62
     7
370
    25
100
AcDbCircle
 10
259.1880224179
 20
139.9666885508
 30
0.0
 40
3.378200000000049
100
AcDbArc
 50
0.0
 51
180.0
  0
LINE
  5
1A1
330
1F
100
AcDbEntity
  8
0
  6
Continuous
 62
     7
370
    25
100
AcDbLine
 10
255.8098212134
 20
139.966687117
 30
0.0
 11
255.8098212134
 21
127.2666882018
 31
0.0
  0
LINE
  5
1A2
330
1F
100
AcDbEntity
  8
0
  6
Continuous
 62
     7
370
    25
100
AcDbLine
 10
209.4040252518
 20
127.2666882018
 30
0.0
 11
255.8098212134
 21
127.2666882018
 31
0.0
  0
LINE
  5
1A3
330
1F
100
AcDbEntity
  8
0
  6
Continuous
 62
     7
370
    25
100
AcDbLine
 10
203.0540220689
 20
133.6166913847
 30
0.0
 11
209.4040252518
 21
127.2666882018
 31
0.0
  0
LINE
  5
1A4
330
1F
100
AcDbEntity
  8
0
  6
Continuous
 62
     7
370
    25
100
AcDbLine
 10
203.0540220689
 20
224.4724884389
 30
0.0
 11
203.0540220689
 21
133.6166913847
 31
0.0
  0
LINE
  5
1A5
330
1F
100
AcDbEntity
  8
0
  6
Continuous
 62
     7
370
    25
100
AcDbLine
 10
203.0540220689
 20
224.4724884389
 30
0.0
 11
215.7540209841
 21
224.4724884389
 31
0.0
  0
LINE
  5
1A6
330
1F
100
AcDbEntity
  8
0
  6
Continuous
 62
     7
370
    25
100
AcDbLine
 10
243.4408106159
 20
229.3160731664
 30
0.0
 11
243.4408106159
 21
227.8506885508
 31
0.0
  0
LINE
  5
1A7
330
1F
100
AcDbEntity
  8
0
  6
Continuous
 62
     7
370
    25
100
AcDbLine
 10
243.6678707849
 20
229.3160731664
 30
0.0
 11
243.4408106159
 21
229.3160731664
 31
0.0
  0
SPLINE
  5
1A8
330
1F
100
AcDbEntity
  8
0
  6
Continuous
 62
     7
370
    25
100
AcDbSpline
210
0.0
220
0.0
230
1.0
 70
     8
 71
     3
 72
    15
 73
    11
 74
     0
 42
0.000000001
 43
0.00000001
 40
0.0
 40
0.0
 40
0.0
 40
0.0
 40
0.0751731173762204
 40
0.1647462575118024
 40
0.2680168809877824
 40
0.3859118756529554
 40
0.5177894792733927
 40
0.6636909770022797
 40
0.8244132205366382
 40
1.0
 40
1.0
 40
1.0
 40
1.0
 10
244.4762490323246
 20
229.3682266117383
 30
0.0
 10
244.4563578079181
 20
229.3639966217605
 30
0.0
 10
244.4127650330981
 20
229.3547263527803
 30
0.0
 10
244.3409712779798
 20
229.3443772526424
 30
0.0
 10
244.2573822493148
 20
229.3355438577349
 30
0.0
 10
244.1621120382486
 20
229.3289206829292
 30
0.0
 10
244.0552461602126
 20
229.3232507058244
 30
0.0
 10
243.9367268053492
 20
229.3187439349379
 30
0.0
 10
243.8063213210508
 20
229.3162675675303
 30
0.0
 10
243.7153609782087
 20
229.3161398483488
 30
0.0
 10
243.6678706268759
 20
229.3160731662254
 30
0.0
  0
SPLINE
  5
1A9
330
1F
100
AcDbEntity
  8
0
  6
Continuous
 62
     7
370
    25
100
AcDbSpline
210
0.0
220
0.0
230
1.0
 70
     8
 71
     3
 72
    23
 73
    19
 74
     0
 42
0.000000001
 43
0.00000001
 40
0.0
 40
0.0
 40
0.0
 40
0.0
 40
0.0701188944197149
 40
0.1371923527859713
 40
0.2020161807247505
 40
0.2646314069747431
 40
0.3261165471458174
 40
0.3860103046676424
 40
0.4458118469576799
 40
0.5052976967309594
 40
0.5646332777264893
 40
0.6242826253338417
 40
0.6839020319037519
 40
0.7439527709382712
 40
0.805387731007633
 40
0.8683880308962807
 40
0.9330840282524806
 40
1.0
 40
1.0
 40
1.0
 40
1.0
 10
245.109722590017
 20
230.1740609466741
 30
0.0
 10
245.1093402975843
 20
230.1479553920169
 30
0.0
 10
245.1085923166195
 20
230.0968781111521
 30
0.0
 10
245.0996149720712
 20
230.0221542247238
 30
0.0
 10
245.0875225839599
 20
229.9507453993901
 30
0.0
 10
245.0689288293489
 20
229.8828099693214
 30
0.0
 10
245.0445759687524
 20
229.8187513775372
 30
0.0
 10
245.0160081779567
 20
229.7575906884899
 30
0.0
 10
244.9815516896927
 20
229.7003684146961
 30
0.0
 10
244.9419595941696
 20
229.6468768152119
 30
0.0
 10
244.8979163621132
 20
229.5970656804698
 30
0.0
 10
244.849608339651
 20
229.5512959740371
 30
0.0
 10
244.7972305528829
 20
229.5098356098967
 30
0.0
 10
244.7409494614136
 20
229.4725916409866
 30
0.0
 10
244.6802163842548
 20
229.4404277302994
 30
0.0
 10
244.6159524306583
 20
229.4116193179741
 30
0.0
 10
244.547599020047
 20
229.3874248558235
 30
0.0
 10
244.5002983109408
 20
229.3746975858153
 30
0.0
 10
244.4762490323246
 20
229.3682266117383
 30
0.0
  0
SPLINE
  5
1AA
330
1F
100
AcDbEntity
  8
0
  6
Continuous
 62
     7
370
    25
100
AcDbSpline
210
0.0
220
0.0
230
1.0
 70
     8
 71
     3
 72
    23
 73
    19
 74
     0
 42
0.000000001
 43
0.00000001
 40
0.0
 40
0.0
 40
0.0
 40
0.0
 40
0.0624813386351981
 40
0.1234903826872869
 40
0.1834110942063088
 40
0.2431532209997756
 40
0.3021267353720873
 40
0.3617096708329057
 40
0.4218422916948783
 40
0.4829319014466652
 40
0.5445522544313223
 40
0.6056807199653552
 40
0.6676797383436861
 40
0.7299843875380616
 40
0.7945509212861284
 40
0.8603456197120818
 40
0.9289073562657086
 40
1.0
 40
1.0
 40
1.0
 40
1.0
 10
244.5016897374528
 20
230.9779872287254
 30
0.0
 10
244.5236367288152
 20
230.9719801742353
 30
0.0
 10
244.5670135581434
 20
230.9601076139793
 30
0.0
 10
244.6295166472427
 20
230.9363280219693
 30
0.0
 10
244.6889833499284
 20
230.9081320578458
 30
0.0
 10
244.7456176922323
 20
230.8759974838382
 30
0.0
 10
244.7987237247323
 20
230.8385455791827
 30
0.0
 10
244.8490937761801
 20
230.7972945116621
 30
0.0
 10
244.896283329734
 20
230.7512918744571
 30
0.0
 10
244.9400270209432
 20
230.7010536318812
 30
0.0
 10
244.9801996587515
 20
230.6474231557744
 30
0.0
 10
245.0147887280826
 20
230.5895998472155
 30
0.0
 10
245.0437512840342
 20
230.5285570219704
 30
0.0
 10
245.0685918231663
 20
230.4643371395633
 30
0.0
 10
245.0864702068633
 20
230.396400917539
 30
0.0
 10
245.0999384658818
 20
230.3252203998853
 30
0.0
 10
245.1084870423618
 20
230.2508032166311
 30
0.0
 10
245.1093057948111
 20
230.1999489082372
 30
0.0
 10
245.109722590017
 20
230.1740609466741
 30
0.0
  0
SPLINE
  5
1AB
330
1F
100
AcDbEntity
  8
0
  6
Continuous
 62
     7
370
    25
100
AcDbSpline
210
0.0
220
0.0
230
1.0
 70
     8
 71
     3
 72
    15
 73
    11
 74
     0
 42
0.000000001
 43
0.00000001
 40
0.0
 40
0.0
 40
0.0
 40
0.0
 40
0.1769557521312498
 40
0.3390550796425774
 40
0.4863182249420687
 40
0.6187809228353727
 40
0.7356188277673806
 40
0.8387424767201102
 40
0.9264570678763085
 40
1.0
 40
1.0
 40
1.0
 40
1.0
 10
243.7785376941836
 20
231.0256885508408
 30
0.0
 10
243.8213647304783
 20
231.0256414735366
 30
0.0
 10
243.9034232339566
 20
231.0255512713311
 30
0.0
 10
244.0210933202068
 20
231.0228164661893
 30
0.0
 10
244.1279635767535
 20
231.0191636812194
 30
0.0
 10
244.2238035651657
 20
231.0141001066799
 30
0.0
 10
244.3089081684299
 20
231.0081160569554
 30
0.0
 10
244.3828922901614
 20
230.9997231355202
 30
0.0
 10
244.4463374591214
 20
230.990959867411
 30
0.0
 10
244.4843525954051
 20
230.9820504486399
 30
0.0
 10
244.5016897374528
 20
230.9779872287254
 30
0.0
  0
LINE
  5
1AC
330
1F
100
AcDbEntity
  8
0
  6
Continuous
 62
     7
370
    25
100
AcDbLine
 10
243.1558780622
 20
231.0256885125
 30
0.0
 11
243.7785379838
 21
231.0256885125
 31
0.0
  0
LINE
  5
1AD
330
1F
100
AcDbEntity
  8
0
  6
Continuous
 62
     7
370
    25
100
AcDbLine
 10
243.1558780622
 20
227.8506885508
 30
0.0
 11
243.1558780622
 21
231.0256885125
 31
0.0
  0
LINE
  5
1AE
330
1F
100
AcDbEntity
  8
0
  6
Continuous
 62
     7
370
    25
100
AcDbLine
 10
243.4408106159
 20
227.8506885508
 30
0.0
 11
243.1558780622
 21
227.8506885508
 31
0.0
  0
LINE
  5
1AF
330
1F
100
AcDbEntity
  8
0
  6
Continuous
 62
     7
370
    25
100
AcDbLine
 10
249.7094013046
 20
227.8506885508
 30
0.0
 11
249.4244650256
 21
227.8506885508
 31
0.0
  0
LINE
  5
1B0
330
1F
100
AcDbEntity
  8
0
  6
Continuous
 62
     7
370
    25
100
AcDbLine
 10
249.7094013046
 20
230.7000476161
 30
0.0
 11
249.7094013046
 21
227.8506885508
 31
0.0
  0
LINE
  5
1B1
330
1F
100
AcDbEntity
  8
0
  6
Continuous
 62
     7
370
    25
100
AcDbLine
 10
250.4013888787
 20
230.7000476161
 30
0.0
 11
249.7094013046
 21
230.7000476161
 31
0.0
  0
LINE
  5
1B2
330
1F
100
AcDbEntity
  8
0
  6
Continuous
 62
     7
370
    25
100
AcDbLine
 10
250.4013888787
 20
231.0256885125
 30
0.0
 11
250.4013888787
 21
230.7000476161
 31
0.0
  0
LINE
  5
1B3
330
1F
100
AcDbEntity
  8
0
  6
Continuous
 62
     7
370
    25
100
AcDbLine
 10
248.7324774515
 20
231.0256885125
 30
0.0
 11
250.4013888787
 21
231.0256885125
 31
0.0
  0
LINE
  5
1B4
330
1F
100
AcDbEntity
  8
0
  6
Continuous
 62
     7
370
    25
100
AcDbLine
 10
248.7324774515
 20
230.7000476161
 30
0.0
 11
248.7324774515
 21
231.0256885125
 31
0.0
  0
LINE
  5
1B5
330
1F
100
AcDbEntity
  8
0
  6
Continuous
 62
     7
370
    25
100
AcDbLine
 10
249.4244650256
 20
230.7000476161
 30
0.0
 11
248.7324774515
 21
230.7000476161
 31
0.0
  0
LINE
  5
1B6
330
1F
100
AcDbEntity
  8
0
  6
Continuous
 62
     7
370
    25
100
AcDbLine
 10
249.4244650256
 20
227.8506885508
 30
0.0
 11
249.4244650256
 21
230.7000476161
 31
0.0
  0
LINE
  5
1B7
330
1F
100
AcDbEntity
  8
0
  6
Continuous
 62
     7
370
    25
100
AcDbLine
 10
251.1747852217
 20
231.0256885125
 30
0.0
 11
251.1747852217
 21
227.8506885508
 31
0.0
  0
LINE
  5
1B8
330
1F
100
AcDbEntity
  8
0
  6
Continuous
 62
     7
370
    25
100
AcDbLine
 10
250.8898489427
 20
231.0256885125
 30
0.0
 11
251.1747852217
 21
231.0256885125
 31
0.0
  0
LINE
  5
1B9
330
1F
100
AcDbEntity
  8
0
  6
Continuous
 62
     7
370
    25
100
AcDbLine
 10
250.8898489427
 20
227.8506885508
 30
0.0
 11
250.8898489427
 21
231.0256885125
 31
0.0
  0
LINE
  5
1BA
330
1F
100
AcDbEntity
  8
0
  6
Continuous
 62
     7
370
    25
100
AcDbLine
 10
251.1747852217
 20
227.8506885508
 30
0.0
 11
250.8898489427
 21
227.8506885508
 31
0.0
  0
LINE
  5
1BB
330
1F
100
AcDbEntity
  8
0
  6
Continuous
 62
     7
370
    25
100
AcDbLine
 10
253.7799142551
 20
228.1763295636
 30
0.0
 11
253.7799142551
 21
227.8506885508
 31
0.0
  0
LINE
  5
1BC
330
1F
100
AcDbEntity
  8
0
  6
Continuous
 62
     7
370
    25
100
AcDbLine
 10
252.2738240909
 20
228.1763295636
 30
0.0
 11
253.7799142551
 21
228.1763295636
 31
0.0
  0
LINE
  5
1BD
330
1F
100
AcDbEntity
  8
0
  6
Continuous
 62
     7
370
    25
100
AcDbLine
 10
252.2738240909
 20
229.3974834487
 30
0.0
 11
252.2738240909
 21
228.1763295636
 31
0.0
  0
LINE
  5
1BE
330
1F
100
AcDbEntity
  8
0
  6
Continuous
 62
     7
370
    25
100
AcDbLine
 10
253.7799142551
 20
229.3974834487
 30
0.0
 11
252.2738240909
 21
229.3974834487
 31
0.0
  0
LINE
  5
1BF
330
1F
100
AcDbEntity
  8
0
  6
Continuous
 62
     7
370
    25
100
AcDbLine
 10
253.7799142551
 20
229.7231244615
 30
0.0
 11
253.7799142551
 21
229.3974834487
 31
0.0
  0
LINE
  5
1C0
330
1F
100
AcDbEntity
  8
0
  6
Continuous
 62
     7
370
    25
100
AcDbLine
 10
252.2738240909
 20
229.7231244615
 30
0.0
 11
253.7799142551
 21
229.7231244615
 31
0.0
  0
LINE
  5
1C1
330
1F
100
AcDbEntity
  8
0
  6
Continuous
 62
     7
370
    25
100
AcDbLine
 10
252.2738240909
 20
230.7000476161
 30
0.0
 11
252.2738240909
 21
229.7231244615
 31
0.0
  0
LINE
  5
1C2
330
1F
100
AcDbEntity
  8
0
  6
Continuous
 62
     7
370
    25
100
AcDbLine
 10
253.7799142551
 20
230.7000476161
 30
0.0
 11
252.2738240909
 21
230.7000476161
 31
0.0
  0
LINE
  5
1C3
330
1F
100
AcDbEntity
  8
0
  6
Continuous
 62
     7
370
    25
100
AcDbLine
 10
253.7799142551
 20
231.0256885125
 30
0.0
 11
253.7799142551
 21
230.7000476161
 31
0.0
  0
LINE
  5
1C4
330
1F
100
AcDbEntity
  8
0
  6
Continuous
 62
     7
370
    25
100
AcDbLine
 10
251.9888878118
 20
231.0256885125
 30
0.0
 11
253.7799142551
 21
231.0256885125
 31
0.0
  0
LINE
  5
1C5
330
1F
100
AcDbEntity
  8
0
  6
Continuous
 62
     7
370
    25
100
AcDbLine
 10
251.9888878118
 20
227.8506885508
 30
0.0
 11
251.9888878118
 21
231.0256885125
 31
0.0
  0
LINE
  5
1C6
330
1F
100
AcDbEntity
  8
0
  6
Continuous
 62
     7
370
    25
100
AcDbLine
 10
253.7799142551
 20
227.8506885508
 30
0.0
 11
251.9888878118
 21
227.8506885508
 31
0.0
  0
LINE
  5
1C7
330
1F
100
AcDbEntity
  8
0
  6
Continuous
 62
     7
370
    25
100
AcDbLine
 10
256.7272223782
 20
227.8506885508
 30
0.0
 11
254.6347230922
 21
230.343877733
 31
0.0
  0
LINE
  5
1C8
330
1F
100
AcDbEntity
  8
0
  6
Continuous
 62
     7
370
    25
100
AcDbLine
 10
256.7920945834
 20
227.8506885508
 30
0.0
 11
256.7272223782
 21
227.8506885508
 31
0.0
  0
LINE
  5
1C9
330
1F
100
AcDbEntity
  8
0
  6
Continuous
 62
     7
370
    25
100
AcDbLine
 10
256.7920945834
 20
231.0256885125
 30
0.0
 11
256.7920945834
 21
227.8506885508
 31
0.0
  0
LINE
  5
1CA
330
1F
100
AcDbEntity
  8
0
  6
Continuous
 62
     7
370
    25
100
AcDbLine
 10
256.5071583044
 20
231.0256885125
 30
0.0
 11
256.7920945834
 21
231.0256885125
 31
0.0
  0
LINE
  5
1CB
330
1F
100
AcDbEntity
  8
0
  6
Continuous
 62
     7
370
    25
100
AcDbLine
 10
256.5071583044
 20
228.5267753054
 30
0.0
 11
256.5071583044
 21
231.0256885125
 31
0.0
  0
LINE
  5
1CC
330
1F
100
AcDbEntity
  8
0
  6
Continuous
 62
     7
370
    25
100
AcDbLine
 10
254.4095739972
 20
231.0256885125
 30
0.0
 11
256.5071583044
 21
228.5267753054
 31
0.0
  0
LINE
  5
1CD
330
1F
100
AcDbEntity
  8
0
  6
Continuous
 62
     7
370
    25
100
AcDbLine
 10
254.3497868132
 20
231.0256885125
 30
0.0
 11
254.4095739972
 21
231.0256885125
 31
0.0
  0
LINE
  5
1CE
330
1F
100
AcDbEntity
  8
0
  6
Continuous
 62
     7
370
    25
100
AcDbLine
 10
254.3497868132
 20
227.8506885508
 30
0.0
 11
254.3497868132
 21
231.0256885125
 31
0.0
  0
LINE
  5
1CF
330
1F
100
AcDbEntity
  8
0
  6
Continuous
 62
     7
370
    25
100
AcDbLine
 10
254.6347230922
 20
227.8506885508
 30
0.0
 11
254.3497868132
 21
227.8506885508
 31
0.0
  0
LINE
  5
1D0
330
1F
100
AcDbEntity
  8
0
  6
Continuous
 62
     7
370
    25
100
AcDbLine
 10
254.6347230922
 20
230.343877733
 30
0.0
 11
254.6347230922
 21
227.8506885508
 31
0.0
  0
LINE
  5
1D1
330
1F
100
AcDbEntity
  8
0
  6
Continuous
 62
     7
370
    25
100
AcDbLine
 10
258.2167722534
 20
227.8506885508
 30
0.0
 11
257.9318396997
 21
227.8506885508
 31
0.0
  0
LINE
  5
1D2
330
1F
100
AcDbEntity
  8
0
  6
Continuous
 62
     7
370
    25
100
AcDbLine
 10
258.2167722534
 20
230.7000476161
 30
0.0
 11
258.2167722534
 21
227.8506885508
 31
0.0
  0
LINE
  5
1D3
330
1F
100
AcDbEntity
  8
0
  6
Continuous
 62
     7
370
    25
100
AcDbLine
 10
258.9087598275
 20
230.7000476161
 30
0.0
 11
258.2167722534
 21
230.7000476161
 31
0.0
  0
LINE
  5
1D4
330
1F
100
AcDbEntity
  8
0
  6
Continuous
 62
     7
370
    25
100
AcDbLine
 10
258.9087598275
 20
231.0256885125
 30
0.0
 11
258.9087598275
 21
230.7000476161
 31
0.0
  0
LINE
  5
1D5
330
1F
100
AcDbEntity
  8
0
  6
Continuous
 62
     7
370
    25
100
AcDbLine
 10
257.2398521256
 20
231.0256885125
 30
0.0
 11
258.9087598275
 21
231.0256885125
 31
0.0
  0
LINE
  5
1D6
330
1F
100
AcDbEntity
  8
0
  6
Continuous
 62
     7
370
    25
100
AcDbLine
 10
257.2398521256
 20
230.7000476161
 30
0.0
 11
257.2398521256
 21
231.0256885125
 31
0.0
  0
LINE
  5
1D7
330
1F
100
AcDbEntity
  8
0
  6
Continuous
 62
     7
370
    25
100
AcDbLine
 10
257.9318396997
 20
230.7000476161
 30
0.0
 11
257.2398521256
 21
230.7000476161
 31
0.0
  0
LINE
  5
1D8
330
1F
100
AcDbEntity
  8
0
  6
Continuous
 62
     7
370
    25
100
AcDbLine
 10
257.9318396997
 20
227.8506885508
 30
0.0
 11
257.9318396997
 21
230.7000476161
 31
0.0
  0
LINE
  5
1D9
330
1F
100
AcDbEntity
  8
0
  6
Continuous
 62
     7
370
    25
100
AcDbLine
 10
351.2404822063
 20
207.3166891227
 30
0.0
 11
349.1479829203
 21
209.8098769078
 31
0.0
  0
LINE
  5
1DA
330
1F
100
AcDbEntity
  8
0
  6
Continuous
 62
     7
370
    25
100
AcDbLine
 10
351.3053544115
 20
207.3166891227
 30
0.0
 11
351.2404822063
 21
207.3166891227
 31
0.0
  0
LINE
  5
1DB
330
1F
100
AcDbEntity
  8
0
  6
Continuous
 62
     7
370
    25
100
AcDbLine
 10
351.3053544115
 20
210.4916888515
 30
0.0
 11
351.3053544115
 21
207.3166891227
 31
0.0
  0
LINE
  5
1DC
330
1F
100
AcDbEntity
  8
0
  6
Continuous
 62
     7
370
    25
100
AcDbLine
 10
351.0204181325
 20
210.4916888515
 30
0.0
 11
351.3053544115
 21
210.4916888515
 31
0.0
  0
LINE
  5
1DD
330
1F
100
AcDbEntity
  8
0
  6
Continuous
 62
     7
370
    25
100
AcDbLine
 10
351.0204181325
 20
207.9927752951
 30
0.0
 11
351.0204181325
 21
210.4916888515
 31
0.0
  0
LINE
  5
1DE
330
1F
100
AcDbEntity
  8
0
  6
Continuous
 62
     7
370
    25
100
AcDbLine
 10
348.9228338253
 20
210.4916888515
 30
0.0
 11
351.0204181325
 21
207.9927752951
 31
0.0
  0
LINE
  5
1DF
330
1F
100
AcDbEntity
  8
0
  6
Continuous
 62
     7
370
    25
100
AcDbLine
 10
348.8630466413
 20
210.4916888515
 30
0.0
 11
348.9228338253
 21
210.4916888515
 31
0.0
  0
LINE
  5
1E0
330
1F
100
AcDbEntity
  8
0
  6
Continuous
 62
     7
370
    25
100
AcDbLine
 10
348.8630466413
 20
207.3166891227
 30
0.0
 11
348.8630466413
 21
210.4916888515
 31
0.0
  0
LINE
  5
1E1
330
1F
100
AcDbEntity
  8
0
  6
Continuous
 62
     7
370
    25
100
AcDbLine
 10
349.1479829203
 20
207.3166891227
 30
0.0
 11
348.8630466413
 21
207.3166891227
 31
0.0
  0
LINE
  5
1E2
330
1F
100
AcDbEntity
  8
0
  6
Continuous
 62
     7
370
    25
100
AcDbLine
 10
349.1479829203
 20
209.8098769078
 30
0.0
 11
349.1479829203
 21
207.3166891227
 31
0.0
  0
LINE
  5
1E3
330
1F
100
AcDbEntity
  8
0
  6
Continuous
 62
     7
370
    25
100
AcDbLine
 10
346.4614451181
 20
208.7820730398
 30
0.0
 11
346.4614451181
 21
207.3166891227
 31
0.0
  0
LINE
  5
1E4
330
1F
100
AcDbEntity
  8
0
  6
Continuous
 62
     7
370
    25
100
AcDbLine
 10
346.692957009
 20
208.7820730398
 30
0.0
 11
346.4614451181
 21
208.7820730398
 31
0.0
  0
LINE
  5
1E5
330
1F
100
AcDbEntity
  8
0
  6
Continuous
 62
     7
370
    25
100
AcDbLine
 10
347.8594124567
 20
207.3166891227
 30
0.0
 11
346.692957009
 21
208.7820730398
 31
0.0
  0
LINE
  5
1E6
330
1F
100
AcDbEntity
  8
0
  6
Continuous
 62
     7
370
    25
100
AcDbLine
 10
348.2117653143
 20
207.3166891227
 30
0.0
 11
347.8594124567
 21
207.3166891227
 31
0.0
  0
LINE
  5
1E7
330
1F
100
AcDbEntity
  8
0
  6
Continuous
 62
     7
370
    25
100
AcDbLine
 10
347.0453098666
 20
208.7820730398
 30
0.0
 11
348.2117653143
 21
207.3166891227
 31
0.0
  0
SPLINE
  5
1E8
330
1F
100
AcDbEntity
  8
0
  6
Continuous
 62
     7
370
    25
100
AcDbSpline
210
0.0
220
0.0
230
1.0
 70
     8
 71
     3
 72
    23
 73
    19
 74
     0
 42
0.000000001
 43
0.00000001
 40
0.0
 40
0.0
 40
0.0
 40
0.0
 40
0.0787802355821393
 40
0.1537206442085844
 40
0.2267135303087809
 40
0.2991911660659382
 40
0.37118999683767
 40
0.4430064143534085
 40
0.51668917329488
 40
0.5932172166234128
 40
0.6338729178078469
 40
0.6769891422899784
 40
0.7228995063258278
 40
0.7719586105061466
 40
0.8242113233348388
 40
0.8793786506272033
 40
0.9379481193304211
 40
1.0
 40
1.0
 40
1.0
 40
1.0
 10
348.1710608794729
 20
209.6426050171865
 30
0.0
 10
348.1697282883316
 20
209.6003003151465
 30
0.0
 10
348.1671280578653
 20
209.5177528842767
 30
0.0
 10
348.1428845709555
 20
209.3979547989987
 30
0.0
 10
348.103173013773
 20
209.2862044921463
 30
0.0
 10
348.0484511730289
 20
209.1826426706087
 30
0.0
 10
347.9787649343459
 20
209.0892880137463
 30
0.0
 10
347.8950131595593
 20
209.0072909578635
 30
0.0
 10
347.7971491262794
 20
208.9386747514418
 30
0.0
 10
347.7060453896773
 20
208.8910925643197
 30
0.0
 10
347.6255689370955
 20
208.8606189972101
 30
0.0
 10
347.5593172890663
 20
208.8391774431023
 30
0.0
 10
347.4870479594808
 20
208.8226112317438
 30
0.0
 10
347.4094533773741
 20
208.8077702550662
 30
0.0
 10
347.3262106327491
 20
208.7965655037072
 30
0.0
 10
347.2375192398746
 20
208.7883589501528
 30
0.0
 10
347.1433159451815
 20
208.7832299202622
 30
0.0
 10
347.0786012179826
 20
208.7824661015416
 30
0.0
 10
347.0453096775498
 20
208.7820731662249
 30
0.0
  0
SPLINE
  5
1E9
330
1F
100
AcDbEntity
  8
0
  6
Continuous
 62
     7
370
    25
100
AcDbSpline
210
0.0
220
0.0
230
1.0
 70
     8
 71
     3
 72
    23
 73
    19
 74
     0
 42
0.000000001
 43
0.00000001
 40
0.0
 40
0.0
 40
0.0
 40
0.0
 40
0.0642168426314292
 40
0.12706376569313
 40
0.1887445383478316
 40
0.2491321028350388
 40
0.3094525327106245
 40
0.3698266762476813
 40
0.4306501418384651
 40
0.492351931879467
 40
0.5540721062625168
 40
0.6156897837449734
 40
0.6767977025065396
 40
0.7384390482469422
 40
0.8013169100648911
 40
0.8651845117115395
 40
0.9316413244190755
 40
1.0
 40
1.0
 40
1.0
 40
1.0
 10
347.5312271454985
 20
210.4484393521224
 30
0.0
 10
347.5544560116798
 20
210.4427000721122
 30
0.0
 10
347.6004182092719
 20
210.4313439465136
 30
0.0
 10
347.6665943406081
 20
210.4073413086236
 30
0.0
 10
347.7296537630501
 20
210.3795649348569
 30
0.0
 10
347.7893345322562
 20
210.3469407028541
 30
0.0
 10
347.8453377142646
 20
210.3092264384369
 30
0.0
 10
347.8982407533427
 20
210.267073213085
 30
0.0
 10
347.9482837094088
 20
210.2207116764218
 30
0.0
 10
347.9934427596438
 20
210.1689729273444
 30
0.0
 10
348.0360231851096
 20
210.1146926649918
 30
0.0
 10
348.0719357248637
 20
210.055997114143
 30
0.0
 10
348.1028933171834
 20
209.9946184427463
 30
0.0
 10
348.127540857605
 20
209.929932428068
 30
0.0
 10
348.1473873049699
 20
209.8625663921641
 30
0.0
 10
348.1613811078278
 20
209.7919101265616
 30
0.0
 10
348.1697732566072
 20
209.7182855277354
 30
0.0
 10
348.1706276541451
 20
209.6680679961888
 30
0.0
 10
348.1710608794729
 20
209.6426050171865
 30
0.0
  0
SPLINE
  5
1EA
330
1F
100
AcDbEntity
  8
0
  6
Continuous
 62
     7
370
    25
100
AcDbSpline
210
0.0
220
0.0
230
1.0
 70
     8
 71
     3
 72
    15
 73
    11
 74
     0
 42
0.000000001
 43
0.00000001
 40
0.0
 40
0.0
 40
0.0
 40
0.0
 40
0.1762577548178055
 40
0.3384344138804808
 40
0.4848220507878343
 40
0.6171575782663365
 40
0.7346983606124761
 40
0.8373851838323627
 40
0.9263724209295845
 40
0.9999999999999999
 40
0.9999999999999999
 40
0.9999999999999999
 40
0.9999999999999999
 10
346.8118912079985
 20
210.4916885508403
 30
0.0
 10
346.8542920888644
 20
210.4915474121226
 30
0.0
 10
346.9357064770069
 20
210.4912764101502
 30
0.0
 10
347.0523408008331
 20
210.4897653252264
 30
0.0
 10
347.1583196673976
 20
210.4854343025482
 30
0.0
 10
347.2535876644924
 20
210.4817072303939
 30
0.0
 10
347.3381430443638
 20
210.4749109693365
 30
0.0
 10
347.4122450866851
 20
210.4684152394493
 30
0.0
 10
347.4755524979898
 20
210.4599119900284
 30
0.0
 10
347.5138755202428
 20
210.4520149277667
 30
0.0
 10
347.5312271454985
 20
210.4484393521224
 30
0.0
  0
LINE
  5
1EB
330
1F
100
AcDbEntity
  8
0
  6
Continuous
 62
     7
370
    25
100
AcDbLine
 10
346.176508839
 20
210.4916888515
 30
0.0
 11
346.8118906271
 21
210.4916888515
 31
0.0
  0
LINE
  5
1EC
330
1F
100
AcDbEntity
  8
0
  6
Continuous
 62
     7
370
    25
100
AcDbLine
 10
346.176508839
 20
207.3166891227
 30
0.0
 11
346.176508839
 21
210.4916888515
 31
0.0
  0
LINE
  5
1ED
330
1F
100
AcDbEntity
  8
0
  6
Continuous
 62
     7
370
    25
100
AcDbLine
 10
346.4614451181
 20
207.3166891227
 30
0.0
 11
346.176508839
 21
207.3166891227
 31
0.0
  0
CIRCLE
  5
1EE
330
1F
100
AcDbEntity
  8
0
  6
Continuous
 62
     7
370
    25
100
AcDbCircle
 10
343.0586224179
 20
175.5666885508
 30
0.0
 40
16.49999999999994
  0
CIRCLE
  5
1EF
330
1F
100
AcDbEntity
  8
0
  6
Continuous
 62
     7
370
    25
100
AcDbCircle
 10
246.1540224179
 20
197.2146885508
 30
0.0
 40
16.5
  0
LINE
  5
1F0
330
1F
100
AcDbEntity
  8
0
  6
Continuous
 62
     7
370
    25
100
AcDbLine
 10
336.7736265313
 20
208.7820730398
 30
0.0
 11
336.7736265313
 21
207.3166891227
 31
0.0
  0
LINE
  5
1F1
330
1F
100
AcDbEntity
  8
0
  6
Continuous
 62
     7
370
    25
100
AcDbLine
 10
337.0051346969
 20
208.7820730398
 30
0.0
 11
336.7736265313
 21
208.7820730398
 31
0.0
  0
LINE
  5
1F2
330
1F
100
AcDbEntity
  8
0
  6
Continuous
 62
     7
370
    25
100
AcDbLine
 10
338.1715901445
 20
207.3166891227
 30
0.0
 11
337.0051346969
 21
208.7820730398
 31
0.0
  0
LINE
  5
1F3
330
1F
100
AcDbEntity
  8
0
  6
Continuous
 62
     7
370
    25
100
AcDbLine
 10
338.5239467274
 20
207.3166891227
 30
0.0
 11
338.1715901445
 21
207.3166891227
 31
0.0
  0
LINE
  5
1F4
330
1F
100
AcDbEntity
  8
0
  6
Continuous
 62
     7
370
    25
100
AcDbLine
 10
337.3574875545
 20
208.7820730398
 30
0.0
 11
338.5239467274
 21
207.3166891227
 31
0.0
  0
SPLINE
  5
1F5
330
1F
100
AcDbEntity
  8
0
  6
Continuous
 62
     7
370
    25
100
AcDbSpline
210
0.0
220
0.0
230
1.0
 70
     8
 71
     3
 72
    23
 73
    19
 74
     0
 42
0.000000001
 43
0.00000001
 40
0.0
 40
0.0
 40
0.0
 40
0.0
 40
0.0787802355821393
 40
0.1537206442085844
 40
0.2267135303087809
 40
0.2991911660659382
 40
0.37118999683767
 40
0.4430064143534085
 40
0.51668917329488
 40
0.5932172166234128
 40
0.6338729178078469
 40
0.6769891422899784
 40
0.7228995063258278
 40
0.7719586105061466
 40
0.8242113233348388
 40
0.8793786506272033
 40
0.9379481193304211
 40
1.0
 40
1.0
 40
1.0
 40
1.0
 10
338.4832403666524
 20
209.6426050171865
 30
0.0
 10
338.481907775511
 20
209.6003003151465
 30
0.0
 10
338.4793075450447
 20
209.5177528842767
 30
0.0
 10
338.455064058135
 20
209.3979547989987
 30
0.0
 10
338.4153525009525
 20
209.2862044921463
 30
0.0
 10
338.3606306602083
 20
209.1826426706087
 30
0.0
 10
338.2909444215254
 20
209.0892880137463
 30
0.0
 10
338.2071926467388
 20
209.0072909578635
 30
0.0
 10
338.1093286134589
 20
208.9386747514418
 30
0.0
 10
338.0182248768569
 20
208.8910925643197
 30
0.0
 10
337.937748424275
 20
208.8606189972101
 30
0.0
 10
337.8714967762459
 20
208.8391774431023
 30
0.0
 10
337.7992274466603
 20
208.8226112317438
 30
0.0
 10
337.7216328645536
 20
208.8077702550662
 30
0.0
 10
337.6383901199286
 20
208.7965655037072
 30
0.0
 10
337.5496987270541
 20
208.7883589501528
 30
0.0
 10
337.4554954323611
 20
208.7832299202622
 30
0.0
 10
337.3907807051622
 20
208.7824661015416
 30
0.0
 10
337.3574891647293
 20
208.7820731662249
 30
0.0
  0
SPLINE
  5
1F6
330
1F
100
AcDbEntity
  8
0
  6
Continuous
 62
     7
370
    25
100
AcDbSpline
210
0.0
220
0.0
230
1.0
 70
     8
 71
     3
 72
    23
 73
    19
 74
     0
 42
0.000000001
 43
0.00000001
 40
0.0
 40
0.0
 40
0.0
 40
0.0
 40
0.0642168426314284
 40
0.1270637656931303
 40
0.1887445383478263
 40
0.249132102835039
 40
0.3094525327106246
 40
0.3698266762476815
 40
0.4306501418384653
 40
0.4923519318794696
 40
0.554072106262517
 40
0.6156897837449736
 40
0.676797702506537
 40
0.7384390482469418
 40
0.8013169100648909
 40
0.8651845117115424
 40
0.9316413244190754
 40
1.0
 40
1.0
 40
1.0
 40
1.0
 10
337.843406632678
 20
210.4484393521223
 30
0.0
 10
337.8666354988592
 20
210.4427000721122
 30
0.0
 10
337.9125976964515
 20
210.4313439465136
 30
0.0
 10
337.9787738277877
 20
210.4073413086236
 30
0.0
 10
338.0418332502296
 20
210.3795649348569
 30
0.0
 10
338.1015140194357
 20
210.3469407028541
 30
0.0
 10
338.1575172014441
 20
210.3092264384369
 30
0.0
 10
338.2104202405222
 20
210.267073213085
 30
0.0
 10
338.2604631965883
 20
210.2207116764218
 30
0.0
 10
338.3056222468234
 20
210.1689729273444
 30
0.0
 10
338.3482026722892
 20
210.1146926649918
 30
0.0
 10
338.3841152120432
 20
210.055997114143
 30
0.0
 10
338.4150728043629
 20
209.9946184427462
 30
0.0
 10
338.4397203447845
 20
209.929932428068
 30
0.0
 10
338.4595667921494
 20
209.8625663921641
 30
0.0
 10
338.4735605950073
 20
209.7919101265616
 30
0.0
 10
338.4819527437867
 20
209.7182855277354
 30
0.0
 10
338.4828071413245
 20
209.6680679961888
 30
0.0
 10
338.4832403666524
 20
209.6426050171865
 30
0.0
  0
SPLINE
  5
1F7
330
1F
100
AcDbEntity
  8
0
  6
Continuous
 62
     7
370
    25
100
AcDbSpline
210
0.0
220
0.0
230
1.0
 70
     8
 71
     3
 72
    15
 73
    11
 74
     0
 42
0.000000001
 43
0.00000001
 40
0.0
 40
0.0
 40
0.0
 40
0.0
 40
0.1762577548178055
 40
0.3384344138804808
 40
0.4848220507878343
 40
0.6171575782663365
 40
0.7346983606124761
 40
0.8373851838323627
 40
0.9263724209295845
 40
0.9999999999999999
 40
0.9999999999999999
 40
0.9999999999999999
 40
0.9999999999999999
 10
337.124070695178
 20
210.4916885508403
 30
0.0
 10
337.1664715760438
 20
210.4915474121226
 30
0.0
 10
337.2478859641864
 20
210.4912764101502
 30
0.0
 10
337.3645202880126
 20
210.4897653252264
 30
0.0
 10
337.4704991545771
 20
210.4854343025482
 30
0.0
 10
337.5657671516719
 20
210.4817072303939
 30
0.0
 10
337.6503225315433
 20
210.4749109693365
 30
0.0
 10
337.7244245738647
 20
210.4684152394493
 30
0.0
 10
337.7877319851693
 20
210.4599119900284
 30
0.0
 10
337.8260550074224
 20
210.4520149277667
 30
0.0
 10
337.843406632678
 20
210.4484393521223
 30
0.0
  0
LINE
  5
1F8
330
1F
100
AcDbEntity
  8
0
  6
Continuous
 62
     7
370
    25
100
AcDbLine
 10
336.4886902522
 20
210.4916888515
 30
0.0
 11
337.1240720402
 21
210.4916888515
 31
0.0
  0
LINE
  5
1F9
330
1F
100
AcDbEntity
  8
0
  6
Continuous
 62
     7
370
    25
100
AcDbLine
 10
336.4886902522
 20
207.3166891227
 30
0.0
 11
336.4886902522
 21
210.4916888515
 31
0.0
  0
LINE
  5
1FA
330
1F
100
AcDbEntity
  8
0
  6
Continuous
 62
     7
370
    25
100
AcDbLine
 10
336.7736265313
 20
207.3166891227
 30
0.0
 11
336.4886902522
 21
207.3166891227
 31
0.0
  0
LINE
  5
1FB
330
1F
100
AcDbEntity
  8
0
  6
Continuous
 62
     7
370
    25
100
AcDbLine
 10
340.9662544977
 20
207.6423297862
 30
0.0
 11
340.9662544977
 21
207.3166891227
 31
0.0
  0
LINE
  5
1FC
330
1F
100
AcDbEntity
  8
0
  6
Continuous
 62
     7
370
    25
100
AcDbLine
 10
339.4601643335
 20
207.6423297862
 30
0.0
 11
340.9662544977
 21
207.6423297862
 31
0.0
  0
LINE
  5
1FD
330
1F
100
AcDbEntity
  8
0
  6
Continuous
 62
     7
370
    25
100
AcDbLine
 10
339.4601643335
 20
208.8634836713
 30
0.0
 11
339.4601643335
 21
207.6423297862
 31
0.0
  0
LINE
  5
1FE
330
1F
100
AcDbEntity
  8
0
  6
Continuous
 62
     7
370
    25
100
AcDbLine
 10
340.9662544977
 20
208.8634836713
 30
0.0
 11
339.4601643335
 21
208.8634836713
 31
0.0
  0
LINE
  5
1FF
330
1F
100
AcDbEntity
  8
0
  6
Continuous
 62
     7
370
    25
100
AcDbLine
 10
340.9662544977
 20
209.1891243348
 30
0.0
 11
340.9662544977
 21
208.8634836713
 31
0.0
  0
LINE
  5
200
330
1F
100
AcDbEntity
  8
0
  6
Continuous
 62
     7
370
    25
100
AcDbLine
 10
339.4601643335
 20
209.1891243348
 30
0.0
 11
340.9662544977
 21
209.1891243348
 31
0.0
  0
LINE
  5
201
330
1F
100
AcDbEntity
  8
0
  6
Continuous
 62
     7
370
    25
100
AcDbLine
 10
339.4601643335
 20
210.166048188
 30
0.0
 11
339.4601643335
 21
209.1891243348
 31
0.0
  0
LINE
  5
202
330
1F
100
AcDbEntity
  8
0
  6
Continuous
 62
     7
370
    25
100
AcDbLine
 10
340.9662544977
 20
210.166048188
 30
0.0
 11
339.4601643335
 21
210.166048188
 31
0.0
  0
LINE
  5
203
330
1F
100
AcDbEntity
  8
0
  6
Continuous
 62
     7
370
    25
100
AcDbLine
 10
340.9662544977
 20
210.4916888515
 30
0.0
 11
340.9662544977
 21
210.166048188
 31
0.0
  0
LINE
  5
204
330
1F
100
AcDbEntity
  8
0
  6
Continuous
 62
     7
370
    25
100
AcDbLine
 10
339.1752280544
 20
210.4916888515
 30
0.0
 11
340.9662544977
 21
210.4916888515
 31
0.0
  0
LINE
  5
205
330
1F
100
AcDbEntity
  8
0
  6
Continuous
 62
     7
370
    25
100
AcDbLine
 10
339.1752280544
 20
207.3166891227
 30
0.0
 11
339.1752280544
 21
210.4916888515
 31
0.0
  0
LINE
  5
206
330
1F
100
AcDbEntity
  8
0
  6
Continuous
 62
     7
370
    25
100
AcDbLine
 10
340.9662544977
 20
207.3166891227
 30
0.0
 11
339.1752280544
 21
207.3166891227
 31
0.0
  0
LINE
  5
207
330
1F
100
AcDbEntity
  8
0
  6
Continuous
 62
     7
370
    25
100
AcDbLine
 10
342.1467021357
 20
207.3166891227
 30
0.0
 11
341.8617658567
 21
207.3166891227
 31
0.0
  0
LINE
  5
208
330
1F
100
AcDbEntity
  8
0
  6
Continuous
 62
     7
370
    25
100
AcDbLine
 10
342.1467021357
 20
210.166048188
 30
0.0
 11
342.1467021357
 21
207.3166891227
 31
0.0
  0
LINE
  5
209
330
1F
100
AcDbEntity
  8
0
  6
Continuous
 62
     7
370
    25
100
AcDbLine
 10
342.8386897098
 20
210.166048188
 30
0.0
 11
342.1467021357
 21
210.166048188
 31
0.0
  0
LINE
  5
20A
330
1F
100
AcDbEntity
  8
0
  6
Continuous
 62
     7
370
    25
100
AcDbLine
 10
342.8386897098
 20
210.4916888515
 30
0.0
 11
342.8386897098
 21
210.166048188
 31
0.0
  0
LINE
  5
20B
330
1F
100
AcDbEntity
  8
0
  6
Continuous
 62
     7
370
    25
100
AcDbLine
 10
341.1697782826
 20
210.4916888515
 30
0.0
 11
342.8386897098
 21
210.4916888515
 31
0.0
  0
LINE
  5
20C
330
1F
100
AcDbEntity
  8
0
  6
Continuous
 62
     7
370
    25
100
AcDbLine
 10
341.1697782826
 20
210.166048188
 30
0.0
 11
341.1697782826
 21
210.4916888515
 31
0.0
  0
LINE
  5
20D
330
1F
100
AcDbEntity
  8
0
  6
Continuous
 62
     7
370
    25
100
AcDbLine
 10
341.8617658567
 20
210.166048188
 30
0.0
 11
341.1697782826
 21
210.166048188
 31
0.0
  0
LINE
  5
20E
330
1F
100
AcDbEntity
  8
0
  6
Continuous
 62
     7
370
    25
100
AcDbLine
 10
341.8617658567
 20
207.3166891227
 30
0.0
 11
341.8617658567
 21
210.166048188
 31
0.0
  0
SPLINE
  5
20F
330
1F
100
AcDbEntity
  8
0
  6
Continuous
 62
     7
370
    25
100
AcDbSpline
210
0.0
220
0.0
230
1.0
 70
     8
 71
     3
 72
    23
 73
    19
 74
     0
 42
0.000000001
 43
0.00000001
 40
0.0
 40
0.0
 40
0.0
 40
0.0
 40
0.0711745037456336
 40
0.1396441217506219
 40
0.2063172239119596
 40
0.271373240191881
 40
0.3354180839163105
 40
0.3980763446528587
 40
0.4606079146322815
 40
0.5229695111172319
 40
0.5847157240924576
 40
0.64489494031636
 40
0.7042905608207918
 40
0.7629981899193218
 40
0.8210874309038761
 40
0.8801038914767018
 40
0.9393884881896687
 40
1.0
 40
1.0
 40
1.0
 40
1.0
 10
344.3759436919729
 20
207.2352782944301
 30
0.0
 10
344.3454010060356
 20
207.235990188634
 30
0.0
 10
344.285476365481
 20
207.2373869225155
 30
0.0
 10
344.1971768330201
 20
207.2453904172744
 30
0.0
 10
344.1125275263774
 20
207.2604656749746
 30
0.0
 10
344.0306344093619
 20
207.2796607667805
 30
0.0
 10
343.9526124155323
 20
207.3061345855974
 30
0.0
 10
343.8774162195574
 20
207.3370664560063
 30
0.0
 10
343.8063337016853
 20
207.3750551135487
 30
0.0
 10
343.7382116921557
 20
207.4173219772166
 30
0.0
 10
343.6748706633568
 20
207.4648786132697
 30
0.0
 10
343.6167251619663
 20
207.5167129139249
 30
0.0
 10
343.5636791936441
 20
207.5719945419908
 30
0.0
 10
343.5166268762427
 20
207.6313220166521
 30
0.0
 10
343.4747886452305
 20
207.6942339222913
 30
0.0
 10
343.4387476659291
 20
207.7609082326896
 30
0.0
 10
343.4078020801915
 20
207.8313191337725
 30
0.0
 10
343.3918304086461
 20
207.8802623941401
 30
0.0
 10
343.3837561919729
 20
207.90500485693
 30
0.0
  0
SPLINE
  5
210
330
1F
100
AcDbEntity
  8
0
  6
Continuous
 62
     7
370
    25
100
AcDbSpline
210
0.0
220
0.0
230
1.0
 70
     8
 71
     3
 72
    31
 73
    27
 74
     0
 42
0.000000001
 43
0.00000001
 40
0.0
 40
0.0
 40
0.0
 40
0.0
 40
0.0548580354451548
 40
0.1070587915426419
 40
0.1569783545765243
 40
0.2039922771829772
 40
0.2484915357868501
 40
0.2904833137405242
 40
0.3304890042981898
 40
0.3678859257629634
 40
0.403858131353871
 40
0.4400093433074111
 40
0.4762950107796828
 40
0.5127922945733467
 40
0.5504848246303717
 40
0.5883811157748426
 40
0.6276453271698543
 40
0.6679794644543811
 40
0.7084327575000833
 40
0.7486023022886333
 40
0.7890877771957818
 40
0.8294612046317053
 40
0.8703710453051773
 40
0.9122142271494421
 40
0.9555465749316832
 40
1.0
 40
1.0
 40
1.0
 40
1.0
 10
345.362407033319
 20
208.5740954018019
 30
0.0
 10
345.3621765098273
 20
208.5395347294698
 30
0.0
 10
345.3617266292176
 20
208.472087476123
 30
0.0
 10
345.3578253919666
 20
208.3732530290084
 30
0.0
 10
345.3516051135293
 20
208.2794971102514
 30
0.0
 10
345.3428166337242
 20
208.1908071169728
 30
0.0
 10
345.3311716379913
 20
208.1075004153733
 30
0.0
 10
345.3182219736764
 20
208.0288468042427
 30
0.0
 10
345.3017305401175
 20
207.9554108751987
 30
0.0
 10
345.2824688119013
 20
207.8866200391917
 30
0.0
 10
345.2604492361822
 20
207.8211374663091
 30
0.0
 10
345.2319276230444
 20
207.758990365864
 30
0.0
 10
345.1997925409625
 20
207.6982894461995
 30
0.0
 10
345.1616792486782
 20
207.6399528045709
 30
0.0
 10
345.118851780138
 20
207.5837221456532
 30
0.0
 10
345.0703634697459
 20
207.5299384847515
 30
0.0
 10
345.0178179809349
 20
207.4777423499167
 30
0.0
 10
344.9603418090143
 20
207.4284726399067
 30
0.0
 10
344.8988824039599
 20
207.3832890544444
 30
0.0
 10
344.8336225852271
 20
207.3435582192469
 30
0.0
 10
344.7650636583802
 20
207.3099725091034
 30
0.0
 10
344.6933838368246
 20
207.2823264919681
 30
0.0
 10
344.6185525313464
 20
207.2615396769816
 30
0.0
 10
344.5405678550253
 20
207.2460500713803
 30
0.0
 10
344.4592523010899
 20
207.2372487014694
 30
0.0
 10
344.4039486486818
 20
207.2359406649152
 30
0.0
 10
344.3759436919729
 20
207.2352782944301
 30
0.0
  0
LINE
  5
211
330
1F
100
AcDbEntity
  8
0
  6
Continuous
 62
     7
370
    25
100
AcDbLine
 10
345.362406249
 20
210.4916888515
 30
0.0
 11
345.362406249
 21
208.5740956704
 31
0.0
  0
LINE
  5
212
330
1F
100
AcDbEntity
  8
0
  6
Continuous
 62
     7
370
    25
100
AcDbLine
 10
345.0774699699
 20
210.4916888515
 30
0.0
 11
345.362406249
 21
210.4916888515
 31
0.0
  0
LINE
  5
213
330
1F
100
AcDbEntity
  8
0
  6
Continuous
 62
     7
370
    25
100
AcDbLine
 10
345.0774699699
 20
208.5893600474
 30
0.0
 11
345.0774699699
 21
210.4916888515
 31
0.0
  0
SPLINE
  5
214
330
1F
100
AcDbEntity
  8
0
  6
Continuous
 62
     7
370
    25
100
AcDbSpline
210
0.0
220
0.0
230
1.0
 70
     8
 71
     3
 72
    15
 73
    11
 74
     0
 42
0.000000001
 43
0.00000001
 40
0.0
 40
0.0
 40
0.0
 40
0.0
 40
0.0698351039154345
 40
0.1556207549116704
 40
0.2578015566582808
 40
0.373811234066372
 40
0.5064024926743758
 40
0.6555644581431058
 40
0.8200792824038509
 40
1.0
 40
1.0
 40
1.0
 40
1.0
 10
345.0450342368446
 20
208.0964461630198
 30
0.0
 10
345.0477557790766
 20
208.1076480840307
 30
0.0
 10
345.0538204719446
 20
208.1326104783917
 30
0.0
 10
345.059487434182
 20
208.1748119348233
 30
0.0
 10
345.0653897822377
 20
208.224604429279
 30
0.0
 10
345.0694851421671
 20
208.2823457166142
 30
0.0
 10
345.0734776778286
 20
208.347842313191
 30
0.0
 10
345.0758662510083
 20
208.4214354181938
 30
0.0
 10
345.0769702737323
 20
208.5028578040725
 30
0.0
 10
345.0772992766253
 20
208.559678657969
 30
0.0
 10
345.0774711358831
 20
208.5893598248788
 30
0.0
  0
SPLINE
  5
215
330
1F
100
AcDbEntity
  8
0
  6
Continuous
 62
     7
370
    25
100
AcDbSpline
210
0.0
220
0.0
230
1.0
 70
     8
 71
     3
 72
    19
 73
    15
 74
     0
 42
0.000000001
 43
0.00000001
 40
0.0
 40
0.0
 40
0.0
 40
0.0
 40
0.0828906475568703
 40
0.1653025405594726
 40
0.2477618761145918
 40
0.3315277110598015
 40
0.4152798127751539
 40
0.4963662304840508
 40
0.5771513480211471
 40
0.6577825401388795
 40
0.7393216419943472
 40
0.823793081666317
 40
0.909475953379114
 40
0.9999999999999999
 40
0.9999999999999999
 40
0.9999999999999999
 40
0.9999999999999999
 10
344.3600432512677
 20
207.5609193200711
 30
0.0
 10
344.3859455729096
 20
207.5618934556837
 30
0.0
 10
344.4376006112039
 20
207.5638361005581
 30
0.0
 10
344.5143507304717
 20
207.5758661129921
 30
0.0
 10
344.5890994004616
 20
207.597547340431
 30
0.0
 10
344.6622157315203
 20
207.6255234069965
 30
0.0
 10
344.7307512673867
 20
207.6624872932042
 30
0.0
 10
344.7947442469257
 20
207.7051872690112
 30
0.0
 10
344.8518615301186
 20
207.7552714208273
 30
0.0
 10
344.9039841424377
 20
207.8106981619374
 30
0.0
 10
344.949372977104
 20
207.8732364090505
 30
0.0
 10
344.9887167984142
 20
207.9415244342806
 30
0.0
 10
345.0209438917354
 20
208.0165899132383
 30
0.0
 10
345.0368583749827
 20
208.0693442819937
 30
0.0
 10
345.0450342368446
 20
208.0964461630198
 30
0.0
  0
SPLINE
  5
216
330
1F
100
AcDbEntity
  8
0
  6
Continuous
 62
     7
370
    25
100
AcDbSpline
210
0.0
220
0.0
230
1.0
 70
     8
 71
     3
 72
    19
 73
    15
 74
     0
 42
0.000000001
 43
0.00000001
 40
0.0
 40
0.0
 40
0.0
 40
0.0
 40
0.086315003740592
 40
0.1677664659179408
 40
0.2444326843848587
 40
0.3181346623514536
 40
0.3918841069799617
 40
0.4700680503917566
 40
0.5539041787139112
 40
0.644339498309818
 40
0.7368746633345115
 40
0.8261683643076472
 40
0.9136785948895779
 40
1.0
 40
1.0
 40
1.0
 40
1.0
 10
343.6248068730627
 20
208.1670441197506
 30
0.0
 10
343.629503567836
 20
208.137247412996
 30
0.0
 10
343.6386323154404
 20
208.0793329372783
 30
0.0
 10
343.6618972438516
 20
207.9968661387473
 30
0.0
 10
343.6943888340455
 20
207.9225426015959
 30
0.0
 10
343.7328907370899
 20
207.8540430732301
 30
0.0
 10
343.7836296059577
 20
207.793274153761
 30
0.0
 10
343.8444113843874
 20
207.7372928687284
 30
0.0
 10
343.9180512172691
 20
207.6883327316603
 30
0.0
 10
343.999930480987
 20
207.6435644952226
 30
0.0
 10
344.0881820893042
 20
207.6075825990757
 30
0.0
 10
344.1783623094942
 20
207.5803743328526
 30
0.0
 10
344.269115583442
 20
207.5637927594866
 30
0.0
 10
344.3298725331938
 20
207.5618727562757
 30
0.0
 10
344.3600432512677
 20
207.5609193200711
 30
0.0
  0
SPLINE
  5
217
330
1F
100
AcDbEntity
  8
0
  6
Continuous
 62
     7
370
    25
100
AcDbSpline
210
0.0
220
0.0
230
1.0
 70
     8
 71
     3
 72
    15
 73
    11
 74
     0
 42
0.000000001
 43
0.00000001
 40
0.0
 40
0.0
 40
0.0
 40
0.0
 40
0.1910785917157216
 40
0.3626045563099732
 40
0.5160987502785552
 40
0.6500380260398368
 40
0.7659767209867909
 40
0.8623740257993906
 40
0.940842058221172
 40
0.9999999999999999
 40
0.9999999999999999
 40
0.9999999999999999
 40
0.9999999999999999
 10
343.6120865204985
 20
208.5893598248788
 30
0.0
 10
343.6120441170375
 20
208.5624351574532
 30
0.0
 10
343.6119636491629
 20
208.5113409610915
 30
0.0
 10
343.6125011438891
 20
208.4386168598967
 30
0.0
 10
343.6140064280925
 20
208.3739625577569
 30
0.0
 10
343.6149554442632
 20
208.31712883532
 30
0.0
 10
343.6170666682559
 20
208.2683764858395
 30
0.0
 10
343.6187884679437
 20
208.2274413825762
 30
0.0
 10
343.6210024015296
 20
208.194517356064
 30
0.0
 10
343.6236631581185
 20
208.1753032302892
 30
0.0
 10
343.6248068730627
 20
208.1670441197506
 30
0.0
  0
LINE
  5
218
330
1F
100
AcDbEntity
  8
0
  6
Continuous
 62
     7
370
    25
100
AcDbLine
 10
343.6120860528
 20
210.4916888515
 30
0.0
 11
343.6120860528
 21
208.5893600474
 31
0.0
  0
LINE
  5
219
330
1F
100
AcDbEntity
  8
0
  6
Continuous
 62
     7
370
    25
100
AcDbLine
 10
343.3271497737
 20
210.4916888515
 30
0.0
 11
343.6120860528
 21
210.4916888515
 31
0.0
  0
LINE
  5
21A
330
1F
100
AcDbEntity
  8
0
  6
Continuous
 62
     7
370
    25
100
AcDbLine
 10
343.3271497737
 20
208.5740956704
 30
0.0
 11
343.3271497737
 21
210.4916888515
 31
0.0
  0
SPLINE
  5
21B
330
1F
100
AcDbEntity
  8
0
  6
Continuous
 62
     7
370
    25
100
AcDbSpline
210
0.0
220
0.0
230
1.0
 70
     8
 71
     3
 72
    15
 73
    11
 74
     0
 42
0.000000001
 43
0.00000001
 40
0.0
 40
0.0
 40
0.0
 40
0.0
 40
0.0781298651584286
 40
0.1694654174977338
 40
0.2743352908540834
 40
0.3921101633539206
 40
0.5236873298575189
 40
0.6683654211389642
 40
0.8271319021257799
 40
1.0
 40
1.0
 40
1.0
 40
1.0
 10
343.3837561919729
 20
207.90500485693
 30
0.0
 10
343.3790597699147
 20
207.9219072637519
 30
0.0
 10
343.3688731258803
 20
207.9585689605687
 30
0.0
 10
343.3579644630169
 20
208.0192445609029
 30
0.0
 10
343.3487940818135
 20
208.0891080933428
 30
0.0
 10
343.34017118257
 20
208.1681643400053
 30
0.0
 10
343.3350830564236
 20
208.2564745761376
 30
0.0
 10
343.3306222370347
 20
208.3540005212477
 30
0.0
 10
343.3271191971264
 20
208.4608601007773
 30
0.0
 10
343.3271398549497
 20
208.5352952685161
 30
0.0
 10
343.3271506230626
 20
208.5740954018019
 30
0.0
  0
LINE
  5
21C
330
1F
100
AcDbEntity
  8
0
  6
Continuous
 62
     7
370
    25
100
AcDbLine
 10
245.8277866494
 20
227.8506885508
 30
0.0
 11
245.5167733382
 21
227.8506885508
 31
0.0
  0
LINE
  5
21D
330
1F
100
AcDbEntity
  8
0
  6
Continuous
 62
     7
370
    25
100
AcDbLine
 10
246.3105246674
 20
228.8683167884
 30
0.0
 11
245.8277866494
 21
227.8506885508
 31
0.0
  0
LINE
  5
21E
330
1F
100
AcDbEntity
  8
0
  6
Continuous
 62
     7
370
    25
100
AcDbLine
 10
247.7498315524
 20
228.8683167884
 30
0.0
 11
246.3105246674
 21
228.8683167884
 31
0.0
  0
LINE
  5
21F
330
1F
100
AcDbEntity
  8
0
  6
Continuous
 62
     7
370
    25
100
AcDbLine
 10
248.2192144047
 20
227.8506885508
 30
0.0
 11
247.7498315524
 21
228.8683167884
 31
0.0
  0
LINE
  5
220
330
1F
100
AcDbEntity
  8
0
  6
Continuous
 62
     7
370
    25
100
AcDbLine
 10
248.5289536666
 20
227.8506885508
 30
0.0
 11
248.2192144047
 21
227.8506885508
 31
0.0
  0
LINE
  5
221
330
1F
100
AcDbEntity
  8
0
  6
Continuous
 62
     7
370
    25
100
AcDbLine
 10
247.0635697495
 20
231.0256885125
 30
0.0
 11
248.5289536666
 21
227.8506885508
 31
0.0
  0
LINE
  5
222
330
1F
100
AcDbEntity
  8
0
  6
Continuous
 62
     7
370
    25
100
AcDbLine
 10
247.0228635024
 20
231.0256885125
 30
0.0
 11
247.0635697495
 21
231.0256885125
 31
0.0
  0
LINE
  5
223
330
1F
100
AcDbEntity
  8
0
  6
Continuous
 62
     7
370
    25
100
AcDbLine
 10
245.5167733382
 20
227.8506885508
 30
0.0
 11
247.0228635024
 21
231.0256885125
 31
0.0
  0
SPLINE
  5
224
330
1F
100
AcDbEntity
  8
0
  6
Continuous
 62
     7
370
    25
100
AcDbSpline
210
0.0
220
0.0
230
1.0
 70
     8
 71
     3
 72
    23
 73
    19
 74
     0
 42
0.000000001
 43
0.00000001
 40
0.0
 40
0.0
 40
0.0
 40
0.0
 40
0.0652265038922758
 40
0.1285689957067291
 40
0.1903203781044674
 40
0.2513779886240632
 40
0.3123875283336949
 40
0.3737887042767233
 40
0.4364311597804517
 40
0.5005667553098538
 40
0.5646867953847465
 40
0.6271355178835153
 40
0.688455408894982
 40
0.749245746463746
 40
0.8101551773646797
 40
0.8716709256529236
 40
0.9347734961077241
 40
1.0
 40
1.0
 40
1.0
 40
1.0
 10
241.2834405387349
 20
229.4394605860972
 30
0.0
 10
241.2820345285166
 20
229.3823491883309
 30
0.0
 10
241.2792631194891
 20
229.2697760069391
 30
0.0
 10
241.2555242998676
 20
229.1045458825842
 30
0.0
 10
241.2182942498912
 20
228.9457136079182
 30
0.0
 10
241.1651390655684
 20
228.7935443371866
 30
0.0
 10
241.0968988101053
 20
228.6478775471998
 30
0.0
 10
241.0128473334365
 20
228.5090965247498
 30
0.0
 10
240.9138406636918
 20
228.3771557726426
 30
0.0
 10
240.8011673059687
 20
228.2535007120468
 30
0.0
 10
240.678339217856
 20
228.1401101493462
 30
0.0
 10
240.5465946186793
 20
228.0413051692617
 30
0.0
 10
240.4088963927501
 20
227.9562839990899
 30
0.0
 10
240.2634725860626
 20
227.8884445234214
 30
0.0
 10
240.11225183837
 20
227.834222852732
 30
0.0
 10
239.9538807309969
 20
227.7972543954892
 30
0.0
 10
239.7891013569746
 20
227.7734082919677
 30
0.0
 10
239.6767326606679
 20
227.7706700667725
 30
0.0
 10
239.6196184233503
 20
227.7692782944306
 30
0.0
  0
SPLINE
  5
225
330
1F
100
AcDbEntity
  8
0
  6
Continuous
 62
     7
370
    25
100
AcDbSpline
210
0.0
220
0.0
230
1.0
 70
     8
 71
     3
 72
    23
 73
    19
 74
     0
 42
0.000000001
 43
0.00000001
 40
0.0
 40
0.0
 40
0.0
 40
0.0
 40
0.0665700352151783
 40
0.1307490414821798
 40
0.1934128000295037
 40
0.2549893988897107
 40
0.3161135558759001
 40
0.3772617579089821
 40
0.4394007841555528
 40
0.5029705893719776
 40
0.5665249763607308
 40
0.62823110251331
 40
0.6890906105998631
 40
0.7493446689958037
 40
0.8101695933722063
 40
0.8716098243170433
 40
0.9348691840727638
 40
1.0
 40
1.0
 40
1.0
 40
1.0
 10
239.5941777182221
 20
231.1070988072511
 30
0.0
 10
239.6529679285815
 20
231.1056097509645
 30
0.0
 10
239.7684367521773
 20
231.1026851215639
 30
0.0
 10
239.9381404093984
 20
231.080297649053
 30
0.0
 10
240.1001516744065
 20
231.0415668310114
 30
0.0
 10
240.2557903003196
 20
230.9899839826182
 30
0.0
 10
240.4031946433502
 20
230.921173218737
 30
0.0
 10
240.5434742101095
 20
230.8380016913147
 30
0.0
 10
240.6762952313656
 20
230.739598046584
 30
0.0
 10
240.7998674846092
 20
230.6267229622258
 30
0.0
 10
240.9129491466518
 20
230.5039108290436
 30
0.0
 10
241.0125769149104
 20
230.3728487249061
 30
0.0
 10
241.0960724242242
 20
230.2343290970993
 30
0.0
 10
241.1646395311526
 20
230.0887682007315
 30
0.0
 10
241.2184318413749
 20
229.936495229783
 30
0.0
 10
241.2555512595799
 20
229.7766983844391
 30
0.0
 10
241.2792622957901
 20
229.6104130298737
 30
0.0
 10
241.2820343224383
 20
229.4969958025886
 30
0.0
 10
241.2834405387349
 20
229.4394605860972
 30
0.0
  0
SPLINE
  5
226
330
1F
100
AcDbEntity
  8
0
  6
Continuous
 62
     7
370
    25
100
AcDbSpline
210
0.0
220
0.0
230
1.0
 70
     8
 71
     3
 72
    31
 73
    27
 74
     0
 42
0.000000001
 43
0.00000001
 40
0.0
 40
0.0
 40
0.0
 40
0.0
 40
0.0432089861713366
 40
0.0858728716306187
 40
0.1281200066967022
 40
0.1701519644541992
 40
0.2119176209878607
 40
0.2537530026191234
 40
0.2960064088559495
 40
0.3384433571447833
 40
0.3810153681620343
 40
0.4228204794407615
 40
0.4640890557943135
 40
0.5051258486836843
 40
0.5459749706852395
 40
0.5869852111338615
 40
0.6283385916346617
 40
0.6700838015912054
 40
0.7119916023637216
 40
0.7530391548630168
 40
0.7940493953116355
 40
0.8348855427015821
 40
0.8754983129295143
 40
0.9165472998303774
 40
0.9580037786449587
 40
1.0
 40
1.0
 40
1.0
 40
1.0
 10
237.9456200259144
 20
229.4241961630203
 30
0.0
 10
237.946105016694
 20
229.4619629414514
 30
0.0
 10
237.9470688798774
 20
229.5370200534896
 30
0.0
 10
237.9586727723313
 20
229.6484776121992
 30
0.0
 10
237.9755108869973
 20
229.7581427088878
 30
0.0
 10
237.9996426219529
 20
229.8657034973983
 30
0.0
 10
238.0312036341478
 20
229.9708966763782
 30
0.0
 10
238.0684436875661
 20
230.0744477255226
 30
0.0
 10
238.1139276901404
 20
230.1753072463488
 30
0.0
 10
238.1653451351471
 20
230.2739530374011
 30
0.0
 10
238.2227326324249
 20
230.3688473519811
 30
0.0
 10
238.2861199194278
 20
230.4585452595539
 30
0.0
 10
238.3532805751094
 20
230.5437994494921
 30
0.0
 10
238.4269073679005
 20
230.6224006601176
 30
0.0
 10
238.5045737146135
 20
230.6966354769855
 30
0.0
 10
238.5875395290639
 20
230.7653630845682
 30
0.0
 10
238.6752985650241
 20
230.8292032186502
 30
0.0
 10
238.7682284380971
 20
230.8867345280589
 30
0.0
 10
238.8640393017379
 20
230.9387674573175
 30
0.0
 10
238.9628060930092
 20
230.9834187078519
 30
0.0
 10
239.0631874114464
 20
231.0217419207936
 30
0.0
 10
239.1656534134931
 20
231.0528032407937
 30
0.0
 10
239.2699319995946
 20
231.0773251591579
 30
0.0
 10
239.3762507613143
 20
231.0940232585938
 30
0.0
 10
239.4845249980106
 20
231.1056567469631
 30
0.0
 10
239.5574695516295
 20
231.1066160523392
 30
0.0
 10
239.5941777182221
 20
231.1070988072511
 30
0.0
  0
SPLINE
  5
227
330
1F
100
AcDbEntity
  8
0
  6
Continuous
 62
     7
370
    25
100
AcDbSpline
210
0.0
220
0.0
230
1.0
 70
     8
 71
     3
 72
    23
 73
    19
 74
     0
 42
0.000000001
 43
0.00000001
 40
0.0
 40
0.0
 40
0.0
 40
0.0
 40
0.0658188768433105
 40
0.1297465269068317
 40
0.1920719544880075
 40
0.2534594242982047
 40
0.3145695877964227
 40
0.3762798811880274
 40
0.4390256536685592
 40
0.5032670288290871
 40
0.5674928228792939
 40
0.629704795605246
 40
0.6909996492157555
 40
0.7514516509174461
 40
0.8120043642646947
 40
0.8731496810680429
 40
0.9356354837317856
 40
1.0
 40
1.0
 40
1.0
 40
1.0
 10
239.6196184233503
 20
227.7692782944306
 30
0.0
 10
239.5620835054188
 20
227.7706838096484
 30
0.0
 10
239.4486668666747
 20
227.7734544542837
 30
0.0
 10
239.2821725560088
 20
227.7972047286398
 30
0.0
 10
239.122263459804
 20
227.8343443399452
 30
0.0
 10
238.9693968697757
 20
227.8874207570863
 30
0.0
 10
238.8234875407828
 20
227.9560163878153
 30
0.0
 10
238.6842501086241
 20
228.0396589316814
 30
0.0
 10
238.5522434536263
 20
228.1389068383238
 30
0.0
 10
238.4285620121725
 20
228.2515436595509
 30
0.0
 10
238.3153966681071
 20
228.3741635674509
 30
0.0
 10
238.2167363772999
 20
228.5055489274147
 30
0.0
 10
238.1330750245032
 20
228.6431220916556
 30
0.0
 10
238.0647097157396
 20
228.787264845672
 30
0.0
 10
238.0105855276198
 20
228.9372803686944
 30
0.0
 10
237.9736604425936
 20
229.0941693447027
 30
0.0
 10
237.9497699717883
 20
229.2570373249775
 30
0.0
 10
237.9470169324799
 20
229.3679290970297
 30
0.0
 10
237.9456200259144
 20
229.4241961630203
 30
0.0
  0
LINE
  5
228
330
1F
100
AcDbEntity
  8
0
  6
Continuous
 62
     7
370
    25
100
AcDbLine
 10
236.9279898953
 20
227.8506885508
 30
0.0
 11
236.6430573415
 21
227.8506885508
 31
0.0
  0
LINE
  5
229
330
1F
100
AcDbEntity
  8
0
  6
Continuous
 62
     7
370
    25
100
AcDbLine
 10
236.9279898953
 20
230.7000476161
 30
0.0
 11
236.9279898953
 21
227.8506885508
 31
0.0
  0
LINE
  5
22A
330
1F
100
AcDbEntity
  8
0
  6
Continuous
 62
     7
370
    25
100
AcDbLine
 10
237.6199774694
 20
230.7000476161
 30
0.0
 11
236.9279898953
 21
230.7000476161
 31
0.0
  0
LINE
  5
22B
330
1F
100
AcDbEntity
  8
0
  6
Continuous
 62
     7
370
    25
100
AcDbLine
 10
237.6199774694
 20
231.0256885125
 30
0.0
 11
237.6199774694
 21
230.7000476161
 31
0.0
  0
LINE
  5
22C
330
1F
100
AcDbEntity
  8
0
  6
Continuous
 62
     7
370
    25
100
AcDbLine
 10
235.9510697674
 20
231.0256885125
 30
0.0
 11
237.6199774694
 21
231.0256885125
 31
0.0
  0
LINE
  5
22D
330
1F
100
AcDbEntity
  8
0
  6
Continuous
 62
     7
370
    25
100
AcDbLine
 10
235.9510697674
 20
230.7000476161
 30
0.0
 11
235.9510697674
 21
231.0256885125
 31
0.0
  0
LINE
  5
22E
330
1F
100
AcDbEntity
  8
0
  6
Continuous
 62
     7
370
    25
100
AcDbLine
 10
236.6430573415
 20
230.7000476161
 30
0.0
 11
235.9510697674
 21
230.7000476161
 31
0.0
  0
LINE
  5
22F
330
1F
100
AcDbEntity
  8
0
  6
Continuous
 62
     7
370
    25
100
AcDbLine
 10
236.6430573415
 20
227.8506885508
 30
0.0
 11
236.6430573415
 21
230.7000476161
 31
0.0
  0
SPLINE
  5
230
330
1F
100
AcDbEntity
  8
0
  6
Continuous
 62
     7
370
    25
100
AcDbSpline
210
0.0
220
0.0
230
1.0
 70
     8
 71
     3
 72
    23
 73
    19
 74
     0
 42
0.000000001
 43
0.00000001
 40
0.0
 40
0.0
 40
0.0
 40
0.0
 40
0.0711745037456386
 40
0.1396441217506211
 40
0.2063172239119637
 40
0.2713732401918854
 40
0.3354180839163147
 40
0.3980763446528636
 40
0.4606079146322848
 40
0.5229695111172317
 40
0.584715724092454
 40
0.6448949403163617
 40
0.7042905608207896
 40
0.7629981899193249
 40
0.8210874309038769
 40
0.8801038914767022
 40
0.9393884881896714
 40
0.9999999999999999
 40
0.9999999999999999
 40
0.9999999999999999
 40
0.9999999999999999
 10
367.7705567185695
 20
271.6841645076462
 30
0.0
 10
367.7400140326324
 20
271.6848764018502
 30
0.0
 10
367.6800893920778
 20
271.6862731357317
 30
0.0
 10
367.5917898596168
 20
271.6942766304906
 30
0.0
 10
367.5071405529741
 20
271.7093518881908
 30
0.0
 10
367.4252474359586
 20
271.7285469799967
 30
0.0
 10
367.347225442129
 20
271.7550207988136
 30
0.0
 10
367.2720292461541
 20
271.7859526692225
 30
0.0
 10
367.2009467282821
 20
271.8239413267649
 30
0.0
 10
367.1328247187524
 20
271.8662081904328
 30
0.0
 10
367.0694836899535
 20
271.9137648264859
 30
0.0
 10
367.0113381885629
 20
271.9655991271412
 30
0.0
 10
366.9582922202408
 20
272.020880755207
 30
0.0
 10
366.9112399028394
 20
272.0802082298683
 30
0.0
 10
366.8694016718272
 20
272.1431201355076
 30
0.0
 10
366.8333606925257
 20
272.2097944459059
 30
0.0
 10
366.8024151067882
 20
272.2802053469887
 30
0.0
 10
366.7864434352428
 20
272.3291486073562
 30
0.0
 10
366.7783692185695
 20
272.3538910701463
 30
0.0
  0
SPLINE
  5
231
330
1F
100
AcDbEntity
  8
0
  6
Continuous
 62
     7
370
    25
100
AcDbSpline
210
0.0
220
0.0
230
1.0
 70
     8
 71
     3
 72
    31
 73
    27
 74
     0
 42
0.000000001
 43
0.00000001
 40
0.0
 40
0.0
 40
0.0
 40
0.0
 40
0.0548580354451548
 40
0.1070587915426419
 40
0.1569783545765262
 40
0.2039922771829773
 40
0.2484915357868498
 40
0.2904833137405246
 40
0.3304890042981876
 40
0.3678859257629649
 40
0.4038581313538742
 40
0.4400093433074112
 40
0.4762950107796862
 40
0.5127922945733502
 40
0.5504848246303738
 40
0.5883811157748424
 40
0.6276453271698514
 40
0.6679794644543797
 40
0.7084327575000862
 40
0.7486023022886331
 40
0.7890877771957784
 40
0.8294612046317087
 40
0.8703710453051807
 40
0.9122142271494381
 40
0.955546574931683
 40
1.0
 40
1.0
 40
1.0
 40
1.0
 10
368.7570200599156
 20
273.022981615018
 30
0.0
 10
368.756789536424
 20
272.988420942686
 30
0.0
 10
368.7563396558142
 20
272.9209736893393
 30
0.0
 10
368.7524384185633
 20
272.8221392422246
 30
0.0
 10
368.7462181401259
 20
272.7283833234676
 30
0.0
 10
368.7374296603209
 20
272.639693330189
 30
0.0
 10
368.725784664588
 20
272.5563866285895
 30
0.0
 10
368.7128350002731
 20
272.4777330174589
 30
0.0
 10
368.6963435667142
 20
272.4042970884149
 30
0.0
 10
368.677081838498
 20
272.3355062524079
 30
0.0
 10
368.6550622627789
 20
272.2700236795253
 30
0.0
 10
368.6265406496411
 20
272.2078765790802
 30
0.0
 10
368.5944055675592
 20
272.1471756594157
 30
0.0
 10
368.5562922752749
 20
272.0888390177871
 30
0.0
 10
368.5134648067347
 20
272.0326083588694
 30
0.0
 10
368.4649764963425
 20
271.9788246979678
 30
0.0
 10
368.4124310075316
 20
271.9266285631329
 30
0.0
 10
368.3549548356109
 20
271.8773588531229
 30
0.0
 10
368.2934954305566
 20
271.8321752676605
 30
0.0
 10
368.2282356118238
 20
271.7924444324631
 30
0.0
 10
368.1596766849768
 20
271.7588587223196
 30
0.0
 10
368.0879968634213
 20
271.7312127051843
 30
0.0
 10
368.0131655579431
 20
271.7104258901979
 30
0.0
 10
367.935180881622
 20
271.6949362845965
 30
0.0
 10
367.8538653276866
 20
271.6861349146856
 30
0.0
 10
367.7985616752784
 20
271.6848268781314
 30
0.0
 10
367.7705567185695
 20
271.6841645076462
 30
0.0
  0
LINE
  5
232
330
1F
100
AcDbEntity
  8
0
  6
Continuous
 62
     7
370
    25
100
AcDbLine
 10
368.757020707
 20
274.9405744711
 30
0.0
 11
368.757020707
 21
273.02298129
 31
0.0
  0
LINE
  5
233
330
1F
100
AcDbEntity
  8
0
  6
Continuous
 62
     7
370
    25
100
AcDbLine
 10
368.4720807027
 20
274.9405744711
 30
0.0
 11
368.757020707
 21
274.9405744711
 31
0.0
  0
LINE
  5
234
330
1F
100
AcDbEntity
  8
0
  6
Continuous
 62
     7
370
    25
100
AcDbLine
 10
368.4720807027
 20
273.0382475296
 30
0.0
 11
368.4720807027
 21
274.9405744711
 31
0.0
  0
SPLINE
  5
235
330
1F
100
AcDbEntity
  8
0
  6
Continuous
 62
     7
370
    25
100
AcDbSpline
210
0.0
220
0.0
230
1.0
 70
     8
 71
     3
 72
    15
 73
    11
 74
     0
 42
0.000000001
 43
0.00000001
 40
0.0
 40
0.0
 40
0.0
 40
0.0
 40
0.0698351039154346
 40
0.1556207549116706
 40
0.2578015566582795
 40
0.3738112340663778
 40
0.5064024926743748
 40
0.6555644581430985
 40
0.8200792824038504
 40
1.0
 40
1.0
 40
1.0
 40
1.0
 10
368.4396472634414
 20
272.545332376236
 30
0.0
 10
368.4423688056733
 20
272.5565342972469
 30
0.0
 10
368.4484334985413
 20
272.5814966916079
 30
0.0
 10
368.4541004607786
 20
272.6236981480395
 30
0.0
 10
368.4600028088344
 20
272.6734906424953
 30
0.0
 10
368.4640981687638
 20
272.7312319298304
 30
0.0
 10
368.4680907044253
 20
272.7967285264072
 30
0.0
 10
368.4704792776049
 20
272.87032163141
 30
0.0
 10
368.471583300329
 20
272.9517440172887
 30
0.0
 10
368.471912303222
 20
273.0085648711852
 30
0.0
 10
368.4720841624798
 20
273.038246038095
 30
0.0
  0
SPLINE
  5
236
330
1F
100
AcDbEntity
  8
0
  6
Continuous
 62
     7
370
    25
100
AcDbSpline
210
0.0
220
0.0
230
1.0
 70
     8
 71
     3
 72
    19
 73
    15
 74
     0
 42
0.000000001
 43
0.00000001
 40
0.0
 40
0.0
 40
0.0
 40
0.0
 40
0.082890647556871
 40
0.1653025405594657
 40
0.2477618761145842
 40
0.3315277110598024
 40
0.4152798127751503
 40
0.4963662304840475
 40
0.5771513480211473
 40
0.6577825401388749
 40
0.7393216419943472
 40
0.8237930816663137
 40
0.9094759533791174
 40
1.0
 40
1.0
 40
1.0
 40
1.0
 10
367.7546562778644
 20
272.0098055332873
 30
0.0
 10
367.7805585995063
 20
272.0107796688999
 30
0.0
 10
367.8322136378006
 20
272.0127223137744
 30
0.0
 10
367.9089637570683
 20
272.0247523262083
 30
0.0
 10
367.9837124270583
 20
272.0464335536471
 30
0.0
 10
368.0568287581171
 20
272.0744096202127
 30
0.0
 10
368.1253642939834
 20
272.1113735064204
 30
0.0
 10
368.1893572735224
 20
272.1540734822274
 30
0.0
 10
368.2464745567153
 20
272.2041576340436
 30
0.0
 10
368.2985971690344
 20
272.2595843751536
 30
0.0
 10
368.3439860037007
 20
272.3221226222668
 30
0.0
 10
368.3833298250109
 20
272.3904106474968
 30
0.0
 10
368.4155569183322
 20
272.4654761264546
 30
0.0
 10
368.4314714015794
 20
272.5182304952098
 30
0.0
 10
368.4396472634414
 20
272.545332376236
 30
0.0
  0
SPLINE
  5
237
330
1F
100
AcDbEntity
  8
0
  6
Continuous
 62
     7
370
    25
100
AcDbSpline
210
0.0
220
0.0
230
1.0
 70
     8
 71
     3
 72
    19
 73
    15
 74
     0
 42
0.000000001
 43
0.00000001
 40
0.0
 40
0.0
 40
0.0
 40
0.0
 40
0.0863150037405917
 40
0.1677664659179421
 40
0.2444326843848602
 40
0.3181346623514524
 40
0.3918841069799655
 40
0.4700680503917508
 40
0.5539041787139125
 40
0.6443394983098174
 40
0.7368746633345058
 40
0.8261683643076402
 40
0.9136785948895714
 40
1.0
 40
1.0
 40
1.0
 40
1.0
 10
367.0194198996592
 20
272.6159303329668
 30
0.0
 10
367.0241165944326
 20
272.5861336262122
 30
0.0
 10
367.0332453420369
 20
272.5282191504945
 30
0.0
 10
367.0565102704483
 20
272.4457523519636
 30
0.0
 10
367.0890018606422
 20
272.3714288148121
 30
0.0
 10
367.1275037636867
 20
272.3029292864463
 30
0.0
 10
367.1782426325545
 20
272.2421603669773
 30
0.0
 10
367.2390244109841
 20
272.1861790819446
 30
0.0
 10
367.3126642438658
 20
272.1372189448765
 30
0.0
 10
367.3945435075837
 20
272.0924507084388
 30
0.0
 10
367.4827951159008
 20
272.0564688122919
 30
0.0
 10
367.5729753360908
 20
272.0292605460688
 30
0.0
 10
367.6637286100387
 20
272.0126789727028
 30
0.0
 10
367.7244855597905
 20
272.010758969492
 30
0.0
 10
367.7546562778644
 20
272.0098055332873
 30
0.0
  0
SPLINE
  5
238
330
1F
100
AcDbEntity
  8
0
  6
Continuous
 62
     7
370
    25
100
AcDbSpline
210
0.0
220
0.0
230
1.0
 70
     8
 71
     3
 72
    15
 73
    11
 74
     0
 42
0.000000001
 43
0.00000001
 40
0.0
 40
0.0
 40
0.0
 40
0.0
 40
0.1910785917157136
 40
0.3626045563099654
 40
0.5160987502785555
 40
0.6500380260398458
 40
0.7659767209867911
 40
0.8623740257993918
 40
0.9408420582211802
 40
1.0
 40
1.0
 40
1.0
 40
1.0
 10
367.0066995470952
 20
273.038246038095
 30
0.0
 10
367.0066571436342
 20
273.0113213706694
 30
0.0
 10
367.0065766757596
 20
272.9602271743077
 30
0.0
 10
367.0071141704857
 20
272.8875030731129
 30
0.0
 10
367.0086194546892
 20
272.8228487709731
 30
0.0
 10
367.00956847086
 20
272.7660150485362
 30
0.0
 10
367.0116796948525
 20
272.7172626990557
 30
0.0
 10
367.0134014945403
 20
272.6763275957924
 30
0.0
 10
367.0156154281262
 20
272.6434035692801
 30
0.0
 10
367.0182761847153
 20
272.6241894435054
 30
0.0
 10
367.0194198996592
 20
272.6159303329668
 30
0.0
  0
LINE
  5
239
330
1F
100
AcDbEntity
  8
0
  6
Continuous
 62
     7
370
    25
100
AcDbLine
 10
367.0067005109
 20
274.9405744711
 30
0.0
 11
367.0067005109
 21
273.0382475296
 31
0.0
  0
LINE
  5
23A
330
1F
100
AcDbEntity
  8
0
  6
Continuous
 62
     7
370
    25
100
AcDbLine
 10
366.7217605065
 20
274.9405744711
 30
0.0
 11
367.0067005109
 21
274.9405744711
 31
0.0
  0
LINE
  5
23B
330
1F
100
AcDbEntity
  8
0
  6
Continuous
 62
     7
370
    25
100
AcDbLine
 10
366.7217605065
 20
273.02298129
 30
0.0
 11
366.7217605065
 21
274.9405744711
 31
0.0
  0
SPLINE
  5
23C
330
1F
100
AcDbEntity
  8
0
  6
Continuous
 62
     7
370
    25
100
AcDbSpline
210
0.0
220
0.0
230
1.0
 70
     8
 71
     3
 72
    15
 73
    11
 74
     0
 42
0.000000001
 43
0.00000001
 40
0.0
 40
0.0
 40
0.0
 40
0.0
 40
0.0781298651584311
 40
0.1694654174977314
 40
0.2743352908540877
 40
0.3921101633539189
 40
0.5236873298575231
 40
0.6683654211389636
 40
0.8271319021257796
 40
1.0
 40
1.0
 40
1.0
 40
1.0
 10
366.7783692185695
 20
272.3538910701463
 30
0.0
 10
366.7736727965114
 20
272.3707934769681
 30
0.0
 10
366.7634861524771
 20
272.4074551737849
 30
0.0
 10
366.7525774896135
 20
272.4681307741191
 30
0.0
 10
366.7434071084102
 20
272.5379943065591
 30
0.0
 10
366.7347842091667
 20
272.6170505532215
 30
0.0
 10
366.7296960830203
 20
272.7053607893538
 30
0.0
 10
366.7252352636314
 20
272.8028867344639
 30
0.0
 10
366.7217322237231
 20
272.9097463139935
 30
0.0
 10
366.7217528815464
 20
272.9841814817324
 30
0.0
 10
366.7217636496593
 20
273.0229816150181
 30
0.0
  0
LINE
  5
23D
330
1F
100
AcDbEntity
  8
0
  6
Continuous
 62
     7
370
    25
100
AcDbLine
 10
357.5631082307
 20
273.2309605221
 30
0.0
 11
357.5631082307
 21
271.765576605
 31
0.0
  0
LINE
  5
23E
330
1F
100
AcDbEntity
  8
0
  6
Continuous
 62
     7
370
    25
100
AcDbLine
 10
357.7946201216
 20
273.2309605221
 30
0.0
 11
357.5631082307
 21
273.2309605221
 31
0.0
  0
LINE
  5
23F
330
1F
100
AcDbEntity
  8
0
  6
Continuous
 62
     7
370
    25
100
AcDbLine
 10
358.9610755693
 20
271.765576605
 30
0.0
 11
357.7946201216
 21
273.2309605221
 31
0.0
  0
LINE
  5
240
330
1F
100
AcDbEntity
  8
0
  6
Continuous
 62
     7
370
    25
100
AcDbLine
 10
359.3134321522
 20
271.765576605
 30
0.0
 11
358.9610755693
 21
271.765576605
 31
0.0
  0
LINE
  5
241
330
1F
100
AcDbEntity
  8
0
  6
Continuous
 62
     7
370
    25
100
AcDbLine
 10
358.1469729792
 20
273.2309605221
 30
0.0
 11
359.3134321522
 21
271.765576605
 31
0.0
  0
SPLINE
  5
242
330
1F
100
AcDbEntity
  8
0
  6
Continuous
 62
     7
370
    25
100
AcDbSpline
210
0.0
220
0.0
230
1.0
 70
     8
 71
     3
 72
    23
 73
    19
 74
     0
 42
0.000000001
 43
0.00000001
 40
0.0
 40
0.0
 40
0.0
 40
0.0
 40
0.0787802355821392
 40
0.1537206442085864
 40
0.2267135303087808
 40
0.2991911660659342
 40
0.3711899968376685
 40
0.4430064143534098
 40
0.5166891732948813
 40
0.5932172166234131
 40
0.6338729178078479
 40
0.6769891422899788
 40
0.722899506325828
 40
0.7719586105061468
 40
0.8242113233348347
 40
0.8793786506272037
 40
0.9379481193304168
 40
0.9999999999999999
 40
0.9999999999999999
 40
0.9999999999999999
 40
0.9999999999999999
 10
359.2727251881208
 20
274.0914912304027
 30
0.0
 10
359.2713925969795
 20
274.0491865283627
 30
0.0
 10
359.2687923665132
 20
273.9666390974929
 30
0.0
 10
359.2445488796035
 20
273.8468410122149
 30
0.0
 10
359.204837322421
 20
273.7350907053625
 30
0.0
 10
359.1501154816768
 20
273.6315288838249
 30
0.0
 10
359.0804292429939
 20
273.5381742269625
 30
0.0
 10
358.9966774682072
 20
273.4561771710797
 30
0.0
 10
358.8988134349273
 20
273.387560964658
 30
0.0
 10
358.8077096983254
 20
273.339978777536
 30
0.0
 10
358.7272332457434
 20
273.3095052104263
 30
0.0
 10
358.6609815977143
 20
273.2880636563185
 30
0.0
 10
358.5887122681287
 20
273.2714974449601
 30
0.0
 10
358.511117686022
 20
273.2566564682824
 30
0.0
 10
358.4278749413971
 20
273.2454517169234
 30
0.0
 10
358.3391835485226
 20
273.237245163369
 30
0.0
 10
358.2449802538296
 20
273.2321161334785
 30
0.0
 10
358.1802655266306
 20
273.2313523147578
 30
0.0
 10
358.1469739861978
 20
273.2309593794411
 30
0.0
  0
SPLINE
  5
243
330
1F
100
AcDbEntity
  8
0
  6
Continuous
 62
     7
370
    25
100
AcDbSpline
210
0.0
220
0.0
230
1.0
 70
     8
 71
     3
 72
    23
 73
    19
 74
     0
 42
0.000000001
 43
0.00000001
 40
0.0
 40
0.0
 40
0.0
 40
0.0
 40
0.0642168426314291
 40
0.1270637656931288
 40
0.1887445383478303
 40
0.249132102835039
 40
0.3094525327106297
 40
0.3698266762476835
 40
0.4306501418384672
 40
0.4923519318794667
 40
0.5540721062625189
 40
0.6156897837449727
 40
0.6767977025065388
 40
0.7384390482469384
 40
0.801316910064895
 40
0.8651845117115391
 40
0.9316413244190758
 40
1.0
 40
1.0
 40
1.0
 40
1.0
 10
358.6328914541464
 20
274.8973255653386
 30
0.0
 10
358.6561203203277
 20
274.8915862853284
 30
0.0
 10
358.70208251792
 20
274.8802301597298
 30
0.0
 10
358.7682586492562
 20
274.8562275218399
 30
0.0
 10
358.831318071698
 20
274.8284511480732
 30
0.0
 10
358.8909988409043
 20
274.7958269160703
 30
0.0
 10
358.9470020229126
 20
274.7581126516531
 30
0.0
 10
358.9999050619907
 20
274.7159594263013
 30
0.0
 10
359.0499480180568
 20
274.669597889638
 30
0.0
 10
359.0951070682918
 20
274.6178591405606
 30
0.0
 10
359.1376874937577
 20
274.563578878208
 30
0.0
 10
359.1736000335117
 20
274.5048833273592
 30
0.0
 10
359.2045576258313
 20
274.4435046559624
 30
0.0
 10
359.2292051662529
 20
274.3788186412843
 30
0.0
 10
359.2490516136178
 20
274.3114526053803
 30
0.0
 10
359.2630454164758
 20
274.2407963397778
 30
0.0
 10
359.2714375652552
 20
274.1671717409517
 30
0.0
 10
359.272291962793
 20
274.116954209405
 30
0.0
 10
359.2727251881208
 20
274.0914912304027
 30
0.0
  0
SPLINE
  5
244
330
1F
100
AcDbEntity
  8
0
  6
Continuous
 62
     7
370
    25
100
AcDbSpline
210
0.0
220
0.0
230
1.0
 70
     8
 71
     3
 72
    15
 73
    11
 74
     0
 42
0.000000001
 43
0.00000001
 40
0.0
 40
0.0
 40
0.0
 40
0.0
 40
0.1762577548178055
 40
0.3384344138804807
 40
0.4848220507878342
 40
0.6171575782663363
 40
0.7346983606124762
 40
0.8373851838323633
 40
0.9263724209295837
 40
1.0
 40
1.0
 40
1.0
 40
1.0
 10
357.9135555166465
 20
274.9405747640565
 30
0.0
 10
357.9559563975123
 20
274.9404336253388
 30
0.0
 10
358.0373707856548
 20
274.9401626233664
 30
0.0
 10
358.1540051094811
 20
274.9386515384426
 30
0.0
 10
358.2599839760455
 20
274.9343205157644
 30
0.0
 10
358.3552519731404
 20
274.9305934436102
 30
0.0
 10
358.4398073530117
 20
274.9237971825527
 30
0.0
 10
358.5139093953331
 20
274.9173014526655
 30
0.0
 10
358.5772168066378
 20
274.9087982032446
 30
0.0
 10
358.6155398288908
 20
274.9009011409829
 30
0.0
 10
358.6328914541464
 20
274.8973255653386
 30
0.0
  0
LINE
  5
245
330
1F
100
AcDbEntity
  8
0
  6
Continuous
 62
     7
370
    25
100
AcDbLine
 10
357.278175677
 20
274.9405744711
 30
0.0
 11
357.9135537397
 21
274.9405744711
 31
0.0
  0
LINE
  5
246
330
1F
100
AcDbEntity
  8
0
  6
Continuous
 62
     7
370
    25
100
AcDbLine
 10
357.278175677
 20
271.765576605
 30
0.0
 11
357.278175677
 21
274.9405744711
 31
0.0
  0
LINE
  5
247
330
1F
100
AcDbEntity
  8
0
  6
Continuous
 62
     7
370
    25
100
AcDbLine
 10
357.5631082307
 20
271.765576605
 30
0.0
 11
357.278175677
 21
271.765576605
 31
0.0
  0
LINE
  5
248
330
1F
100
AcDbEntity
  8
0
  6
Continuous
 62
     7
370
    25
100
AcDbLine
 10
362.3256087553
 20
265.799550269
 30
0.0
 11
362.3256087553
 21
265.4739077429
 31
0.0
  0
LINE
  5
249
330
1F
100
AcDbEntity
  8
0
  6
Continuous
 62
     7
370
    25
100
AcDbLine
 10
360.8195185911
 20
265.799550269
 30
0.0
 11
362.3256087553
 21
265.799550269
 31
0.0
  0
LINE
  5
24A
330
1F
100
AcDbEntity
  8
0
  6
Continuous
 62
     7
370
    25
100
AcDbLine
 10
360.8195185911
 20
267.0207041541
 30
0.0
 11
360.8195185911
 21
265.799550269
 31
0.0
  0
LINE
  5
24B
330
1F
100
AcDbEntity
  8
0
  6
Continuous
 62
     7
370
    25
100
AcDbLine
 10
362.3256087553
 20
267.0207041541
 30
0.0
 11
360.8195185911
 21
267.0207041541
 31
0.0
  0
LINE
  5
24C
330
1F
100
AcDbEntity
  8
0
  6
Continuous
 62
     7
370
    25
100
AcDbLine
 10
362.3256087553
 20
267.346342955
 30
0.0
 11
362.3256087553
 21
267.0207041541
 31
0.0
  0
LINE
  5
24D
330
1F
100
AcDbEntity
  8
0
  6
Continuous
 62
     7
370
    25
100
AcDbLine
 10
360.8195185911
 20
267.346342955
 30
0.0
 11
362.3256087553
 21
267.346342955
 31
0.0
  0
LINE
  5
24E
330
1F
100
AcDbEntity
  8
0
  6
Continuous
 62
     7
370
    25
100
AcDbLine
 10
360.8195185911
 20
268.3232668082
 30
0.0
 11
360.8195185911
 21
267.346342955
 31
0.0
  0
LINE
  5
24F
330
1F
100
AcDbEntity
  8
0
  6
Continuous
 62
     7
370
    25
100
AcDbLine
 10
362.3256087553
 20
268.3232668082
 30
0.0
 11
360.8195185911
 21
268.3232668082
 31
0.0
  0
LINE
  5
250
330
1F
100
AcDbEntity
  8
0
  6
Continuous
 62
     7
370
    25
100
AcDbLine
 10
362.3256087553
 20
268.6489093343
 30
0.0
 11
362.3256087553
 21
268.3232668082
 31
0.0
  0
LINE
  5
251
330
1F
100
AcDbEntity
  8
0
  6
Continuous
 62
     7
370
    25
100
AcDbLine
 10
360.534582312
 20
268.6489093343
 30
0.0
 11
362.3256087553
 21
268.6489093343
 31
0.0
  0
LINE
  5
252
330
1F
100
AcDbEntity
  8
0
  6
Continuous
 62
     7
370
    25
100
AcDbLine
 10
360.534582312
 20
265.4739077429
 30
0.0
 11
360.534582312
 21
268.6489093343
 31
0.0
  0
LINE
  5
253
330
1F
100
AcDbEntity
  8
0
  6
Continuous
 62
     7
370
    25
100
AcDbLine
 10
362.3256087553
 20
265.4739077429
 30
0.0
 11
360.534582312
 21
265.4739077429
 31
0.0
  0
LINE
  5
254
330
1F
100
AcDbEntity
  8
0
  6
Continuous
 62
     7
370
    25
100
AcDbLine
 10
365.2729168784
 20
265.4739077429
 30
0.0
 11
363.1804175924
 21
267.967095528
 31
0.0
  0
LINE
  5
255
330
1F
100
AcDbEntity
  8
0
  6
Continuous
 62
     7
370
    25
100
AcDbLine
 10
365.3377890836
 20
265.4739077429
 30
0.0
 11
365.2729168784
 21
265.4739077429
 31
0.0
  0
LINE
  5
256
330
1F
100
AcDbEntity
  8
0
  6
Continuous
 62
     7
370
    25
100
AcDbLine
 10
365.3377890836
 20
268.6489093343
 30
0.0
 11
365.3377890836
 21
265.4739077429
 31
0.0
  0
LINE
  5
257
330
1F
100
AcDbEntity
  8
0
  6
Continuous
 62
     7
370
    25
100
AcDbLine
 10
365.0528528046
 20
268.6489093343
 30
0.0
 11
365.3377890836
 21
268.6489093343
 31
0.0
  0
LINE
  5
258
330
1F
100
AcDbEntity
  8
0
  6
Continuous
 62
     7
370
    25
100
AcDbLine
 10
365.0528528046
 20
266.149995778
 30
0.0
 11
365.0528528046
 21
268.6489093343
 31
0.0
  0
LINE
  5
259
330
1F
100
AcDbEntity
  8
0
  6
Continuous
 62
     7
370
    25
100
AcDbLine
 10
362.9552684974
 20
268.6489093343
 30
0.0
 11
365.0528528046
 21
266.149995778
 31
0.0
  0
LINE
  5
25A
330
1F
100
AcDbEntity
  8
0
  6
Continuous
 62
     7
370
    25
100
AcDbLine
 10
362.8954813134
 20
268.6489093343
 30
0.0
 11
362.9552684974
 21
268.6489093343
 31
0.0
  0
LINE
  5
25B
330
1F
100
AcDbEntity
  8
0
  6
Continuous
 62
     7
370
    25
100
AcDbLine
 10
362.8954813134
 20
265.4739077429
 30
0.0
 11
362.8954813134
 21
268.6489093343
 31
0.0
  0
LINE
  5
25C
330
1F
100
AcDbEntity
  8
0
  6
Continuous
 62
     7
370
    25
100
AcDbLine
 10
363.1804175924
 20
265.4739077429
 30
0.0
 11
362.8954813134
 21
265.4739077429
 31
0.0
  0
LINE
  5
25D
330
1F
100
AcDbEntity
  8
0
  6
Continuous
 62
     7
370
    25
100
AcDbLine
 10
363.1804175924
 20
267.967095528
 30
0.0
 11
363.1804175924
 21
265.4739077429
 31
0.0
  0
SPLINE
  5
25E
330
1F
100
AcDbEntity
  8
0
  6
Continuous
 62
     7
370
    25
100
AcDbSpline
210
0.0
220
0.0
230
1.0
 70
     8
 71
     3
 72
    19
 73
    15
 74
     0
 42
0.000000001
 43
0.00000001
 40
0.0
 40
0.0
 40
0.0
 40
0.0
 40
0.0969723103815111
 40
0.1877734389628668
 40
0.2723961390136903
 40
0.3513209973752897
 40
0.4243347744514598
 40
0.4919087840005243
 40
0.5542332197967971
 40
0.6112676582441536
 40
0.7163478449915524
 40
0.8145400858216117
 40
0.9084954561491833
 40
1.0
 40
1.0
 40
1.0
 40
1.0
 10
366.9507299958131
 20
267.2763820557232
 30
0.0
 10
366.985188645742
 20
267.2513073938459
 30
0.0
 10
367.0519130454567
 20
267.2027537863986
 30
0.0
 10
367.1468524215193
 20
267.1298052766595
 30
0.0
 10
367.2329346617197
 20
267.0584605151671
 30
0.0
 10
367.3104619963869
 20
266.9891751144442
 30
0.0
 10
367.3802003347573
 20
266.9224746300766
 30
0.0
 10
367.4413759813694
 20
266.8575566022056
 30
0.0
 10
367.4946122771129
 20
266.7948861184153
 30
0.0
 10
367.551924853859
 20
266.7145381390384
 30
0.0
 10
367.6104880187096
 20
266.6158581554466
 30
0.0
 10
367.6607813861605
 20
266.4949557533377
 30
0.0
 10
367.6924936013514
 20
266.3735833768869
 30
0.0
 10
367.6966406189218
 20
266.2920068895131
 30
0.0
 10
367.6986867265824
 20
266.2517576566847
 30
0.0
  0
SPLINE
  5
25F
330
1F
100
AcDbEntity
  8
0
  6
Continuous
 62
     7
370
    25
100
AcDbSpline
210
0.0
220
0.0
230
1.0
 70
     8
 71
     3
 72
    15
 73
    11
 74
     0
 42
0.000000001
 43
0.00000001
 40
0.0
 40
0.0
 40
0.0
 40
0.0
 40
0.0525942815291441
 40
0.1249519739750455
 40
0.2180938989285867
 40
0.3335024107325298
 40
0.468789178504446
 40
0.6249375859645927
 40
0.801683047928229
 40
1.0
 40
1.0
 40
1.0
 40
1.0
 10
366.5239621672875
 20
267.5924828169411
 30
0.0
 10
366.5309121265431
 20
267.5862806578082
 30
0.0
 10
366.5474236388744
 20
267.5715457473953
 30
0.0
 10
366.5776096572239
 20
267.5474227499541
 30
0.0
 10
366.6174720527611
 20
267.517665949372
 30
0.0
 10
366.6659699066858
 20
267.4808474551413
 30
0.0
 10
366.7239974419668
 20
267.4381378430778
 30
0.0
 10
366.7915610393266
 20
267.3900832091863
 30
0.0
 10
366.867907572684
 20
267.3351235428015
 30
0.0
 10
366.9220838821071
 20
267.2966992023911
 30
0.0
 10
366.9507299958131
 20
267.2763820557232
 30
0.0
  0
SPLINE
  5
260
330
1F
100
AcDbEntity
  8
0
  6
Continuous
 62
     7
370
    25
100
AcDbSpline
210
0.0
220
0.0
230
1.0
 70
     8
 71
     3
 72
    15
 73
    11
 74
     0
 42
0.000000001
 43
0.00000001
 40
0.0
 40
0.0
 40
0.0
 40
0.0
 40
0.1072852142689504
 40
0.2147458609696379
 40
0.3229385595552852
 40
0.4341161625174688
 40
0.5534123109627971
 40
0.6860729848107295
 40
0.8342559920595816
 40
1.0
 40
1.0
 40
1.0
 40
1.0
 10
366.314712367608
 20
268.0027141871334
 30
0.0
 10
366.3150689896269
 20
267.9857039173147
 30
0.0
 10
366.3157828168116
 20
267.9516555625393
 30
0.0
 10
366.3257385261414
 20
267.9013532011953
 30
0.0
 10
366.338528631696
 20
267.8511779147227
 30
0.0
 10
366.3587965905008
 20
267.8013552860089
 30
0.0
 10
366.3867776873523
 20
267.7510139745829
 30
0.0
 10
366.4235216683531
 20
267.6992871126548
 30
0.0
 10
366.4697980299985
 20
267.6457187769308
 30
0.0
 10
366.5052464626315
 20
267.6108778021493
 30
0.0
 10
366.5239621672875
 20
267.5924828169411
 30
0.0
  0
SPLINE
  5
261
330
1F
100
AcDbEntity
  8
0
  6
Continuous
 62
     7
370
    25
100
AcDbSpline
210
0.0
220
0.0
230
1.0
 70
     8
 71
     3
 72
    15
 73
    11
 74
     0
 42
0.000000001
 43
0.00000001
 40
0.0
 40
0.0
 40
0.0
 40
0.0
 40
0.1430730837303557
 40
0.2759029640930064
 40
0.4023708562739916
 40
0.5284136450935908
 40
0.6503563791869422
 40
0.7658950861246991
 40
0.8807741308440199
 40
1.0
 40
1.0
 40
1.0
 40
1.0
 10
366.7802772714541
 20
268.4046773281591
 30
0.0
 10
366.7474781404149
 20
268.4035781432027
 30
0.0
 10
366.6842281059748
 20
268.4014584685607
 30
0.0
 10
366.5944298203629
 20
268.378308196189
 30
0.0
 10
366.513608902627
 20
268.3418575086258
 30
0.0
 10
366.4441647900402
 20
268.2907717784962
 30
0.0
 10
366.3863462465798
 20
268.2302463065603
 30
0.0
 10
366.3445220089858
 20
268.1605969165996
 30
0.0
 10
366.319348645428
 20
268.0836871656654
 30
0.0
 10
366.3162768060303
 20
268.0300372345645
 30
0.0
 10
366.314712367608
 20
268.0027141871334
 30
0.0
  0
SPLINE
  5
262
330
1F
100
AcDbEntity
  8
0
  6
Continuous
 62
     7
370
    25
100
AcDbSpline
210
0.0
220
0.0
230
1.0
 70
     8
 71
     3
 72
    19
 73
    15
 74
     0
 42
0.000000001
 43
0.00000001
 40
0.0
 40
0.0
 40
0.0
 40
0.0
 40
0.0984694310255607
 40
0.1896291011376331
 40
0.2741840894379737
 40
0.3521831609671524
 40
0.4231988731834764
 40
0.4885509460005372
 40
0.5484733460279431
 40
0.6014401636178742
 40
0.7011980824257733
 40
0.7995918021381883
 40
0.8985450984822287
 40
1.0
 40
1.0
 40
1.0
 40
1.0
 10
367.4003944589542
 20
267.9976260461078
 30
0.0
 10
367.3848406487829
 20
268.0176636438483
 30
0.0
 10
367.3548876470103
 20
268.0562513721303
 30
0.0
 10
367.3094130410725
 20
268.1102910655731
 30
0.0
 10
367.266551767602
 20
268.1596545862914
 30
0.0
 10
367.2243239049406
 20
268.2025308095758
 30
0.0
 10
367.1849596821108
 20
268.241267744818
 30
0.0
 10
367.1467535080725
 20
268.2744326670802
 30
0.0
 10
367.1102552037357
 20
268.3023505286488
 30
0.0
 10
367.0642477205068
 20
268.332144329469
 30
0.0
 10
367.0064466474565
 20
268.3616777291222
 30
0.0
 10
366.933889246725
 20
268.3866686785213
 30
0.0
 10
366.8580645543719
 20
268.4016864846905
 30
0.0
 10
366.8064212458054
 20
268.4036721184127
 30
0.0
 10
366.7802772714541
 20
268.4046773281591
 30
0.0
  0
LINE
  5
263
330
1F
100
AcDbEntity
  8
0
  6
Continuous
 62
     7
370
    25
100
AcDbLine
 10
367.6579781126
 20
268.1928816477
 30
0.0
 11
367.4003966402
 21
267.997624282
 31
0.0
  0
SPLINE
  5
264
330
1F
100
AcDbEntity
  8
0
  6
Continuous
 62
     7
370
    25
100
AcDbSpline
210
0.0
220
0.0
230
1.0
 70
     8
 71
     3
 72
    19
 73
    15
 74
     0
 42
0.000000001
 43
0.00000001
 40
0.0
 40
0.0
 40
0.0
 40
0.0
 40
0.1072327993600882
 40
0.2132518127818467
 40
0.3188304473075843
 40
0.4267935306342739
 40
0.4836459507827228
 40
0.5436038220211409
 40
0.6083076495640816
 40
0.6771267602600407
 40
0.7506856360204944
 40
0.8287134184432827
 40
0.9121903482234532
 40
1.0
 40
1.0
 40
1.0
 40
1.0
 10
366.8120781528644
 20
268.7303183538001
 30
0.0
 10
366.849492443849
 20
268.729027896278
 30
0.0
 10
366.9238975272193
 20
268.7264615881377
 30
0.0
 10
367.0333436013431
 20
268.7041481132976
 30
0.0
 10
367.1387179655065
 20
268.6672267896042
 30
0.0
 10
367.2234843557356
 20
268.6253270784389
 30
0.0
 10
367.2898262179189
 20
268.5834792941847
 30
0.0
 10
367.340420054001
 20
268.5453613107317
 30
0.0
 10
367.391689455786
 20
268.5014781764979
 30
0.0
 10
367.444047976952
 20
268.4517130032675
 30
0.0
 10
367.4966084323004
 20
268.395609164779
 30
0.0
 10
367.5501511354076
 20
268.3335508969828
 30
0.0
 10
367.604801293543
 20
268.2659174498773
 30
0.0
 10
367.6399583952269
 20
268.2176352241929
 30
0.0
 10
367.6579815983773
 20
268.1928834579668
 30
0.0
  0
SPLINE
  5
265
330
1F
100
AcDbEntity
  8
0
  6
Continuous
 62
     7
370
    25
100
AcDbSpline
210
0.0
220
0.0
230
1.0
 70
     8
 71
     3
 72
    19
 73
    15
 74
     0
 42
0.000000001
 43
0.00000001
 40
0.0
 40
0.0
 40
0.0
 40
0.0
 40
0.0837853706537095
 40
0.1657798879221405
 40
0.2462800078932599
 40
0.3274609277363859
 40
0.4087969540320627
 40
0.489715241230987
 40
0.5713760321300455
 40
0.6555233211112693
 40
0.7410194827999742
 40
0.8265467605037564
 40
0.9119888516548267
 40
1.0
 40
1.0
 40
1.0
 40
1.0
 10
366.0297764701721
 20
267.9893578169411
 30
0.0
 10
366.0309604811875
 20
268.0229491124391
 30
0.0
 10
366.0333031958154
 20
268.089413713113
 30
0.0
 10
366.0531156650536
 20
268.1865059664427
 30
0.0
 10
366.0843875042973
 20
268.2792036449186
 30
0.0
 10
366.1281978668574
 20
268.3665890190832
 30
0.0
 10
366.1846741798618
 20
268.4463867303174
 30
0.0
 10
366.2500301708931
 20
268.5195146792226
 30
0.0
 10
366.3278734476942
 20
268.5809904645229
 30
0.0
 10
366.4132833273689
 20
268.6347042603475
 30
0.0
 10
366.5067701791867
 20
268.6767466353567
 30
0.0
 10
366.6047333558404
 20
268.7084612387881
 30
0.0
 10
366.7073285568918
 20
268.7264310654077
 30
0.0
 10
366.7768185433001
 20
268.7290098592927
 30
0.0
 10
366.8120781528644
 20
268.7303183538001
 30
0.0
  0
SPLINE
  5
266
330
1F
100
AcDbEntity
  8
0
  6
Continuous
 62
     7
370
    25
100
AcDbSpline
210
0.0
220
0.0
230
1.0
 70
     8
 71
     3
 72
    15
 73
    11
 74
     0
 42
0.000000001
 43
0.00000001
 40
0.0
 40
0.0
 40
0.0
 40
0.0
 40
0.1335067689985222
 40
0.2625589787303798
 40
0.3882644471488804
 40
0.5126673546814389
 40
0.6337222699657624
 40
0.7553938601370916
 40
0.8775529450912849
 40
1.0
 40
1.0
 40
1.0
 40
1.0
 10
366.2072253884413
 20
267.5059844195052
 30
0.0
 10
366.1931895795531
 20
267.5246725029373
 30
0.0
 10
366.1655862776756
 20
267.5614251270712
 30
0.0
 10
366.1291499727179
 20
267.6188698194748
 30
0.0
 10
366.0981808750366
 20
267.6776737816675
 30
0.0
 10
366.0739036165987
 20
267.7379950302368
 30
0.0
 10
366.0534600466514
 20
267.7989867157213
 30
0.0
 10
366.0397096380717
 20
267.861444631463
 30
0.0
 10
366.0310995851552
 20
267.9250885210701
 30
0.0
 10
366.0302178545144
 20
267.9679179109206
 30
0.0
 10
366.0297764701721
 20
267.9893578169411
 30
0.0
  0
SPLINE
  5
267
330
1F
100
AcDbEntity
  8
0
  6
Continuous
 62
     7
370
    25
100
AcDbSpline
210
0.0
220
0.0
230
1.0
 70
     8
 71
     3
 72
    15
 73
    11
 74
     0
 42
0.000000001
 43
0.00000001
 40
0.0
 40
0.0
 40
0.0
 40
0.0
 40
0.1815353013762896
 40
0.3470816724816299
 40
0.4955678164315641
 40
0.6283573018772146
 40
0.7455196699921637
 40
0.8458307507576541
 40
0.9307818073847621
 40
1.0
 40
1.0
 40
1.0
 40
1.0
 10
366.7274878083132
 20
267.074128449954
 30
0.0
 10
366.6940831832079
 20
267.0979215258657
 30
0.0
 10
366.6302160837387
 20
267.1434120751879
 30
0.0
 10
366.5409000840387
 20
267.2109255328288
 30
0.0
 10
366.4610311783083
 20
267.2726510430561
 30
0.0
 10
366.3909643561765
 20
267.3291696826062
 30
0.0
 10
366.3307304361804
 20
267.3804891168969
 30
0.0
 10
366.2798547704747
 20
267.4261165331188
 30
0.0
 10
366.2396333651095
 20
267.4672859061922
 30
0.0
 10
366.2172672312264
 20
267.493993409061
 30
0.0
 10
366.2072253884413
 20
267.5059844195052
 30
0.0
  0
SPLINE
  5
268
330
1F
100
AcDbEntity
  8
0
  6
Continuous
 62
     7
370
    25
100
AcDbSpline
210
0.0
220
0.0
230
1.0
 70
     8
 71
     3
 72
    15
 73
    11
 74
     0
 42
0.000000001
 43
0.00000001
 40
0.0
 40
0.0
 40
0.0
 40
0.0
 40
0.0902792146500088
 40
0.1895299184469611
 40
0.2991978724002858
 40
0.4189258867738199
 40
0.5483762854012479
 40
0.6881363695386895
 40
0.8390835016589154
 40
0.9999999999999999
 40
0.9999999999999999
 40
0.9999999999999999
 40
0.9999999999999999
 10
367.2999036736978
 20
266.5678584179026
 30
0.0
 10
367.2856881879767
 20
266.5860437507429
 30
0.0
 10
367.2558445538709
 20
266.6242215823012
 30
0.0
 10
367.2045388103044
 20
266.6810497601968
 30
0.0
 10
367.1443352637559
 20
266.739667897389
 30
0.0
 10
367.0772941818004
 20
266.8023143276216
 30
0.0
 10
367.0009734512092
 20
266.8660754003315
 30
0.0
 10
366.9177634917149
 20
266.9339916238904
 30
0.0
 10
366.8255398482243
 20
267.0034801973541
 30
0.0
 10
366.7608610191493
 20
267.0500824532428
 30
0.0
 10
366.7274878083132
 20
267.074128449954
 30
0.0
  0
SPLINE
  5
269
330
1F
100
AcDbEntity
  8
0
  6
Continuous
 62
     7
370
    25
100
AcDbSpline
210
0.0
220
0.0
230
1.0
 70
     8
 71
     3
 72
    11
 73
     7
 74
     0
 42
0.000000001
 43
0.00000001
 40
0.0
 40
0.0
 40
0.0
 40
0.0
 40
0.2347233736738949
 40
0.4771583189289758
 40
0.7285562842030451
 40
1.0
 40
1.0
 40
1.0
 40
1.0
 10
367.4137508291465
 20
266.2562097800822
 30
0.0
 10
367.4124134187264
 20
266.2826446937453
 30
0.0
 10
367.409694658776
 20
266.3363830103311
 30
0.0
 10
367.3867153875674
 20
266.4156669812251
 30
0.0
 10
367.3505664279309
 20
266.4941280983185
 30
0.0
 10
367.3172174582842
 20
266.5426613892355
 30
0.0
 10
367.2999036736978
 20
266.5678584179026
 30
0.0
  0
SPLINE
  5
26A
330
1F
100
AcDbEntity
  8
0
  6
Continuous
 62
     7
370
    25
100
AcDbSpline
210
0.0
220
0.0
230
1.0
 70
     8
 71
     3
 72
    19
 73
    15
 74
     0
 42
0.000000001
 43
0.00000001
 40
0.0
 40
0.0
 40
0.0
 40
0.0
 40
0.0912636048966201
 40
0.1809303110850793
 40
0.2700882198317212
 40
0.3601561333877191
 40
0.4483425324981501
 40
0.5326658421383326
 40
0.6138337041070479
 40
0.6939815272835539
 40
0.7727159770889978
 40
0.8493351720622475
 40
0.9239673265752271
 40
0.9999999999999999
 40
0.9999999999999999
 40
0.9999999999999999
 40
0.9999999999999999
 10
366.7917255887618
 20
265.7181388666207
 30
0.0
 10
366.819562955083
 20
265.7189141766852
 30
0.0
 10
366.8747505992044
 20
265.7204512307096
 30
0.0
 10
366.9559963481762
 20
265.7352202439973
 30
0.0
 10
367.0349012688033
 20
265.7579098180831
 30
0.0
 10
367.109839104459
 20
265.7904045202372
 30
0.0
 10
367.1797758404982
 20
265.829718718002
 30
0.0
 10
367.2411047712679
 20
265.8772041790265
 30
0.0
 10
367.2941237453664
 20
265.9303683799239
 30
0.0
 10
367.3374934421523
 20
265.9896797880634
 30
0.0
 10
367.3707674741639
 20
266.0534674871571
 30
0.0
 10
367.3963417076531
 20
266.1189413858712
 30
0.0
 10
367.4105340244699
 20
266.1871300156672
 30
0.0
 10
367.4126719365341
 20
266.2330409355362
 30
0.0
 10
367.4137508291465
 20
266.2562097800822
 30
0.0
  0
SPLINE
  5
26B
330
1F
100
AcDbEntity
  8
0
  6
Continuous
 62
     7
370
    25
100
AcDbSpline
210
0.0
220
0.0
230
1.0
 70
     8
 71
     3
 72
    15
 73
    11
 74
     0
 42
0.000000001
 43
0.00000001
 40
0.0
 40
0.0
 40
0.0
 40
0.0
 40
0.1590042985173782
 40
0.304646099896816
 40
0.438546904579592
 40
0.5623222987759267
 40
0.6774325425257327
 40
0.7868973929387498
 40
0.8936108891042694
 40
0.9999999999999999
 40
0.9999999999999999
 40
0.9999999999999999
 40
0.9999999999999999
 10
366.094650268249
 20
266.2473055332873
 30
0.0
 10
366.119613240612
 20
266.2055185555138
 30
0.0
 10
366.1674413323248
 20
266.1254563186821
 30
0.0
 10
366.247225779556
 20
266.0172722391503
 30
0.0
 10
366.3298963489708
 20
265.9253222826618
 30
0.0
 10
366.4160652444049
 20
265.8501413601078
 30
0.0
 10
366.5052064973445
 20
265.7909512985582
 30
0.0
 10
366.5979020318056
 20
265.7490392740707
 30
0.0
 10
366.6938394743796
 20
265.722899067841
 30
0.0
 10
366.7591300124359
 20
265.7197239893235
 30
0.0
 10
366.7917255887618
 20
265.7181388666207
 30
0.0
  0
LINE
  5
26C
330
1F
100
AcDbEntity
  8
0
  6
Continuous
 62
     7
370
    25
100
AcDbLine
 10
365.8262491476
 20
266.0863938967
 30
0.0
 11
366.094648863
 21
266.2473040859
 31
0.0
  0
SPLINE
  5
26D
330
1F
100
AcDbEntity
  8
0
  6
Continuous
 62
     7
370
    25
100
AcDbSpline
210
0.0
220
0.0
230
1.0
 70
     8
 71
     3
 72
    23
 73
    19
 74
     0
 42
0.000000001
 43
0.00000001
 40
0.0
 40
0.0
 40
0.0
 40
0.0
 40
0.057208269433506
 40
0.1136960596574876
 40
0.1691779164171975
 40
0.2241592165805465
 40
0.278719878381043
 40
0.333794217446988
 40
0.389241459340005
 40
0.445822073393621
 40
0.5037042811090249
 40
0.5642938918193614
 40
0.6279754158952263
 40
0.6950382596840504
 40
0.7653727258510167
 40
0.8396114430907367
 40
0.9175377500777925
 40
1.0
 40
1.0
 40
1.0
 40
1.0
 10
366.7917255887618
 20
265.3924978409796
 30
0.0
 10
366.7677449562005
 20
265.3929615557144
 30
0.0
 10
366.7200857024368
 20
265.3938831451746
 30
0.0
 10
366.6495921010233
 20
265.4020304495577
 30
0.0
 10
366.5805226165364
 20
265.4135576078154
 30
0.0
 10
366.5137439464055
 20
265.4318583712945
 30
0.0
 10
366.4483957229876
 20
265.4540624861826
 30
0.0
 10
366.3847621602391
 20
265.4814022593253
 30
0.0
 10
366.322812418527
 20
265.5141657206382
 30
0.0
 10
366.2621993254964
 20
265.5516262072657
 30
0.0
 10
366.2030770385504
 20
265.595221446977
 30
0.0
 10
366.1460000926435
 20
265.6459974044602
 30
0.0
 10
366.0890957600707
 20
265.702553683988
 30
0.0
 10
366.034043621979
 20
265.7664261236089
 30
0.0
 10
365.9797301267873
 20
265.8365828130585
 30
0.0
 10
365.9272261409935
 20
265.9136801437119
 30
0.0
 10
365.8754448685275
 20
265.9972981717647
 30
0.0
 10
365.8429551227127
 20
266.0561400709533
 30
0.0
 10
365.8262508291464
 20
266.0863930733514
 30
0.0
  0
SPLINE
  5
26E
330
1F
100
AcDbEntity
  8
0
  6
Continuous
 62
     7
370
    25
100
AcDbSpline
210
0.0
220
0.0
230
1.0
 70
     8
 71
     3
 72
    23
 73
    19
 74
     0
 42
0.000000001
 43
0.00000001
 40
0.0
 40
0.0
 40
0.0
 40
0.0
 40
0.0614842551968915
 40
0.1217745277022102
 40
0.1809195598139319
 40
0.2402561150782701
 40
0.300114444402351
 40
0.3611459476126082
 40
0.423500582412588
 40
0.4886693612807156
 40
0.5539541046535637
 40
0.6175812610152622
 40
0.6802384268167394
 40
0.7421873887724533
 40
0.8046632117692922
 40
0.8682589893126613
 40
0.9330202571803754
 40
1.0
 40
1.0
 40
1.0
 40
1.0
 10
367.6986867265824
 20
266.2517576566847
 30
0.0
 10
367.698090608427
 20
266.2232929969194
 30
0.0
 10
367.6969099483283
 20
266.1669164418482
 30
0.0
 10
367.6833382622576
 20
266.0841350506766
 30
0.0
 10
367.6634539945745
 20
266.0037341903204
 30
0.0
 10
367.6334845037764
 20
265.9267076811739
 30
0.0
 10
367.5969056387835
 20
265.8516463607396
 30
0.0
 10
367.550490542505
 20
265.7805191939382
 30
0.0
 10
367.4966899999216
 20
265.7117519609344
 30
0.0
 10
367.4349736560441
 20
265.6471783652051
 30
0.0
 10
367.3674405875141
 20
265.5879000302754
 30
0.0
 10
367.2960632359271
 20
265.5351686673683
 30
0.0
 10
367.2207247740512
 20
265.4912009740025
 30
0.0
 10
367.1418339010599
 20
265.4553227101429
 30
0.0
 10
367.0593724956186
 20
265.4272615906727
 30
0.0
 10
366.9733682917114
 20
265.4069299165325
 30
0.0
 10
366.8836795208194
 20
265.3944515216324
 30
0.0
 10
366.8227190839644
 20
265.3931563380181
 30
0.0
 10
366.7917255887618
 20
265.3924978409796
 30
0.0
  0
LINE
  5
26F
330
1F
100
AcDbEntity
  8
0
  6
Continuous
 62
     7
370
    25
100
AcDbLine
 10
370.1409958552
 20
265.799550269
 30
0.0
 11
370.1409958552
 21
265.4739077429
 31
0.0
  0
LINE
  5
270
330
1F
100
AcDbEntity
  8
0
  6
Continuous
 62
     7
370
    25
100
AcDbLine
 10
368.6349056911
 20
265.799550269
 30
0.0
 11
370.1409958552
 21
265.799550269
 31
0.0
  0
LINE
  5
271
330
1F
100
AcDbEntity
  8
0
  6
Continuous
 62
     7
370
    25
100
AcDbLine
 10
368.6349056911
 20
267.0207041541
 30
0.0
 11
368.6349056911
 21
265.799550269
 31
0.0
  0
LINE
  5
272
330
1F
100
AcDbEntity
  8
0
  6
Continuous
 62
     7
370
    25
100
AcDbLine
 10
370.1409958552
 20
267.0207041541
 30
0.0
 11
368.6349056911
 21
267.0207041541
 31
0.0
  0
LINE
  5
273
330
1F
100
AcDbEntity
  8
0
  6
Continuous
 62
     7
370
    25
100
AcDbLine
 10
370.1409958552
 20
267.346342955
 30
0.0
 11
370.1409958552
 21
267.0207041541
 31
0.0
  0
LINE
  5
274
330
1F
100
AcDbEntity
  8
0
  6
Continuous
 62
     7
370
    25
100
AcDbLine
 10
368.6349056911
 20
267.346342955
 30
0.0
 11
370.1409958552
 21
267.346342955
 31
0.0
  0
LINE
  5
275
330
1F
100
AcDbEntity
  8
0
  6
Continuous
 62
     7
370
    25
100
AcDbLine
 10
368.6349056911
 20
268.3232668082
 30
0.0
 11
368.6349056911
 21
267.346342955
 31
0.0
  0
LINE
  5
276
330
1F
100
AcDbEntity
  8
0
  6
Continuous
 62
     7
370
    25
100
AcDbLine
 10
370.1409958552
 20
268.3232668082
 30
0.0
 11
368.6349056911
 21
268.3232668082
 31
0.0
  0
LINE
  5
277
330
1F
100
AcDbEntity
  8
0
  6
Continuous
 62
     7
370
    25
100
AcDbLine
 10
370.1409958552
 20
268.6489093343
 30
0.0
 11
370.1409958552
 21
268.3232668082
 31
0.0
  0
LINE
  5
278
330
1F
100
AcDbEntity
  8
0
  6
Continuous
 62
     7
370
    25
100
AcDbLine
 10
368.3499656867
 20
268.6489093343
 30
0.0
 11
370.1409958552
 21
268.6489093343
 31
0.0
  0
LINE
  5
279
330
1F
100
AcDbEntity
  8
0
  6
Continuous
 62
     7
370
    25
100
AcDbLine
 10
368.3499656867
 20
265.4739077429
 30
0.0
 11
368.3499656867
 21
268.6489093343
 31
0.0
  0
LINE
  5
27A
330
1F
100
AcDbEntity
  8
0
  6
Continuous
 62
     7
370
    25
100
AcDbLine
 10
370.1409958552
 20
265.4739077429
 30
0.0
 11
368.3499656867
 21
265.4739077429
 31
0.0
  0
SPLINE
  5
27B
330
1F
100
AcDbEntity
  8
0
  6
Continuous
 62
     7
370
    25
100
AcDbSpline
210
0.0
220
0.0
230
1.0
 70
     8
 71
     3
 72
    15
 73
    11
 74
     0
 42
0.000000001
 43
0.00000001
 40
0.0
 40
0.0
 40
0.0
 40
0.0
 40
0.0902792146500133
 40
0.1895299184469516
 40
0.2991978724002877
 40
0.4189258867738203
 40
0.5483762854012476
 40
0.6881363695386735
 40
0.8390835016589175
 40
1.0
 40
1.0
 40
1.0
 40
1.0
 10
365.6716985454926
 20
272.8595250845693
 30
0.0
 10
365.6574830597717
 20
272.8777104174095
 30
0.0
 10
365.6276394256658
 20
272.9158882489679
 30
0.0
 10
365.5763336820993
 20
272.9727164268635
 30
0.0
 10
365.5161301355508
 20
273.0313345640557
 30
0.0
 10
365.4490890535952
 20
273.0939809942883
 30
0.0
 10
365.3727683230041
 20
273.1577420669981
 30
0.0
 10
365.2895583635098
 20
273.2256582905571
 30
0.0
 10
365.1973347200191
 20
273.2951468640209
 30
0.0
 10
365.1326558909442
 20
273.3417491199095
 30
0.0
 10
365.099282680108
 20
273.3657951166206
 30
0.0
  0
LINE
  5
27C
330
1F
100
AcDbEntity
  8
0
  6
Continuous
 62
     7
370
    25
100
AcDbLine
 10
357.5631082307
 20
273.5565993229
 30
0.0
 11
358.1444286059
 21
273.552147601
 31
0.0
  0
LINE
  5
27D
330
1F
100
AcDbEntity
  8
0
  6
Continuous
 62
     7
370
    25
100
AcDbLine
 10
357.5631082307
 20
274.614931945
 30
0.0
 11
357.5631082307
 21
273.5565993229
 31
0.0
  0
LINE
  5
27E
330
1F
100
AcDbEntity
  8
0
  6
Continuous
 62
     7
370
    25
100
AcDbLine
 10
358.1584207963
 20
274.614931945
 30
0.0
 11
357.5631082307
 21
274.614931945
 31
0.0
  0
SPLINE
  5
27F
330
1F
100
AcDbEntity
  8
0
  6
Continuous
 62
     7
370
    25
100
AcDbSpline
210
0.0
220
0.0
230
1.0
 70
     8
 71
     3
 72
    23
 73
    19
 74
     0
 42
0.000000001
 43
0.00000001
 40
0.0
 40
0.0
 40
0.0
 40
0.0
 40
0.0688142958243089
 40
0.1363648245522196
 40
0.204019353511248
 40
0.2730637386246127
 40
0.3429133195614874
 40
0.4109654441389581
 40
0.4791687665134482
 40
0.5493080065097821
 40
0.5876515764176486
 40
0.6306466687627906
 40
0.6788787856966525
 40
0.7319342992295836
 40
0.7911114229480459
 40
0.8552831895130808
 40
0.9250859386773835
 40
1.0
 40
1.0
 40
1.0
 40
1.0
 10
358.9877892906849
 20
274.0921272480309
 30
0.0
 10
358.9866987951261
 20
274.1176602113428
 30
0.0
 10
358.9845378308413
 20
274.1682572278584
 30
0.0
 10
358.966895019392
 20
274.2423308036193
 30
0.0
 10
358.9370596520188
 20
274.3122415369522
 30
0.0
 10
358.8968530504727
 20
274.3777050340518
 30
0.0
 10
358.8478681027566
 20
274.437128094434
 30
0.0
 10
358.7904298012409
 20
274.4879708689933
 30
0.0
 10
358.7261086599262
 20
274.5299257405227
 30
0.0
 10
358.6659912157069
 20
274.5567357857014
 30
0.0
 10
358.612257322946
 20
274.5731730811459
 30
0.0
 10
358.5656032741946
 20
274.5847402083174
 30
0.0
 10
358.5128878622634
 20
274.5940334051323
 30
0.0
 10
358.4538551248083
 20
274.6014792889263
 30
0.0
 10
358.3887570740249
 20
274.6078791312091
 30
0.0
 10
358.3172645548204
 20
274.6121896732776
 30
0.0
 10
358.2398519041548
 20
274.6147422500023
 30
0.0
 10
358.1861971880027
 20
274.6148684234868
 30
0.0
 10
358.1584223035054
 20
274.6149337384155
 30
0.0
  0
SPLINE
  5
280
330
1F
100
AcDbEntity
  8
0
  6
Continuous
 62
     7
370
    25
100
AcDbSpline
210
0.0
220
0.0
230
1.0
 70
     8
 71
     3
 72
    23
 73
    19
 74
     0
 42
0.000000001
 43
0.00000001
 40
0.0
 40
0.0
 40
0.0
 40
0.0
 40
0.0716681496796066
 40
0.1389132862742058
 40
0.2011845700265607
 40
0.2591244282905451
 40
0.312255041426234
 40
0.360681509623115
 40
0.4050861433286468
 40
0.445101658590713
 40
0.5187777804882603
 40
0.5894615790332
 40
0.6584622419857173
 40
0.727283218368371
 40
0.7963224869047203
 40
0.8631748932078823
 40
0.9309493809878563
 40
1.0
 40
1.0
 40
1.0
 40
1.0
 10
358.1444299156849
 20
273.5521482816847
 30
0.0
 10
358.1715716652783
 20
273.5521362741484
 30
0.0
 10
358.2241801063794
 20
273.5521130001232
 30
0.0
 10
358.3002899951726
 20
273.5557359257156
 30
0.0
 10
358.3711560964929
 20
273.5598573644075
 30
0.0
 10
358.4365073502402
 20
273.5661614135729
 30
0.0
 10
358.4963729507145
 20
273.574285850067
 30
0.0
 10
358.5507229755656
 20
273.5844485571978
 30
0.0
 10
358.5996461440719
 20
273.5962886425988
 30
0.0
 10
358.6567041039268
 20
273.614614403155
 30
0.0
 10
358.7204186716577
 20
273.6436484340099
 30
0.0
 10
358.7896622102604
 20
273.6858899935401
 30
0.0
 10
358.8486286166484
 20
273.7390205516419
 30
0.0
 10
358.8984469631679
 20
273.7997750439017
 30
0.0
 10
358.9384786617205
 20
273.8665736410616
 30
0.0
 10
358.9667017395811
 20
273.9386156331363
 30
0.0
 10
358.984610955089
 20
274.0140822970432
 30
0.0
 10
358.9867232784609
 20
274.0659510091595
 30
0.0
 10
358.9877892906849
 20
274.0921272480309
 30
0.0
  0
SPLINE
  5
281
330
1F
100
AcDbEntity
  8
0
  6
Continuous
 62
     7
370
    25
100
AcDbSpline
210
0.0
220
0.0
230
1.0
 70
     8
 71
     3
 72
    23
 73
    19
 74
     0
 42
0.000000001
 43
0.00000001
 40
0.0
 40
0.0
 40
0.0
 40
0.0
 40
0.0645039992970554
 40
0.1268993215900396
 40
0.1877465401000119
 40
0.2481497329298266
 40
0.3085860647627413
 40
0.3695830050869913
 40
0.4318269653810504
 40
0.4961797225241562
 40
0.5606678546118791
 40
0.6235044551176625
 40
0.6852604113304279
 40
0.7465368217511672
 40
0.8083273517367049
 40
0.8704861878877664
 40
0.9343168833592435
 40
1.0
 40
1.0
 40
1.0
 40
1.0
 10
238.2305559233503
 20
229.4254681982767
 30
0.0
 10
238.2317124052689
 20
229.379601040834
 30
0.0
 10
238.2339875629724
 20
229.2893661526693
 30
0.0
 10
238.2539062158627
 20
229.1571336221451
 30
0.0
 10
238.284587578402
 20
229.0300535338187
 30
0.0
 10
238.3298153322411
 20
228.9088212303882
 30
0.0
 10
238.3863762469662
 20
228.7923946309624
 30
0.0
 10
238.4562506402868
 20
228.6818065645674
 30
0.0
 10
238.5390356679101
 20
228.5770271428232
 30
0.0
 10
238.6330732956132
 20
228.4787878631149
 30
0.0
 10
238.7358731794571
 20
228.3891205978405
 30
0.0
 10
238.8450321558927
 20
228.3104137914268
 30
0.0
 10
238.9593807855419
 20
228.2438202076583
 30
0.0
 10
239.0792172622882
 20
228.1895684634248
 30
0.0
 10
239.2039018155505
 20
228.1465792012786
 30
0.0
 10
239.3342378797059
 20
228.1171164430415
 30
0.0
 10
239.4693572251853
 20
228.0977258513863
 30
0.0
 10
239.5614600337949
 20
228.095863708515
 30
0.0
 10
239.6081701060426
 20
228.0949193200716
 30
0.0
  0
SPLINE
  5
282
330
1F
100
AcDbEntity
  8
0
  6
Continuous
 62
     7
370
    25
100
AcDbSpline
210
0.0
220
0.0
230
1.0
 70
     8
 71
     3
 72
    31
 73
    27
 74
     0
 42
0.000000001
 43
0.00000001
 40
0.0
 40
0.0
 40
0.0
 40
0.0
 40
0.0420233285259283
 40
0.0836449111687104
 40
0.1249837954173957
 40
0.1662474611728948
 40
0.2077015560969883
 40
0.2496310707996512
 40
0.2917417703321312
 40
0.3347428753531985
 40
0.3774601685508642
 40
0.4195563188419386
 40
0.4610441763330334
 40
0.5020962839443983
 40
0.5428907140755995
 40
0.5838008186265075
 40
0.6248635833101953
 40
0.6662246890691698
 40
0.7073991864779371
 40
0.7485566775366937
 40
0.7896545909521797
 40
0.8307397264898321
 40
0.8720701422586052
 40
0.9139933952421323
 40
0.9564981300675883
 40
1.0
 40
1.0
 40
1.0
 40
1.0
 10
239.6081701060426
 20
230.78145778161
 30
0.0
 10
239.5780396884684
 20
230.7810904883089
 30
0.0
 10
239.5180669021644
 20
230.7803594130555
 30
0.0
 10
239.4289087871405
 20
230.7707294425008
 30
0.0
 10
239.3409232471655
 20
230.7570044717911
 30
0.0
 10
239.2540921114812
 20
230.7374269493833
 30
0.0
 10
239.1687786918313
 20
230.7107532729386
 30
0.0
 10
239.0841877644814
 20
230.6800547347954
 30
0.0
 10
239.0010907084719
 20
230.6426613168981
 30
0.0
 10
238.9197618517022
 20
230.6004132207913
 30
0.0
 10
238.8409174621055
 20
230.5536509854908
 30
0.0
 10
238.7665202257859
 20
230.5019694539661
 30
0.0
 10
238.6963775416187
 20
230.4465806226132
 30
0.0
 10
238.6306611497266
 20
230.3873552272781
 30
0.0
 10
238.5695640149683
 20
230.3239916599389
 30
0.0
 10
238.5118836072219
 20
230.2574505214607
 30
0.0
 10
238.4599319153001
 20
230.1858298774426
 30
0.0
 10
238.4123199991785
 20
230.111071865499
 30
0.0
 10
238.3697134583556
 20
230.0332738596909
 30
0.0
 10
238.3318263151429
 20
229.953254913205
 30
0.0
 10
238.3008346785837
 20
229.8703622973417
 30
0.0
 10
238.2755595229545
 20
229.7854953115404
 30
0.0
 10
238.2546046945434
 20
229.6987883659885
 30
0.0
 10
238.2413296348294
 20
229.609583703113
 30
0.0
 10
238.2315938516152
 20
229.5183295657718
 30
0.0
 10
238.2309045632403
 20
229.4566603124621
 30
0.0
 10
238.2305559233503
 20
229.4254681982767
 30
0.0
  0
SPLINE
  5
283
330
1F
100
AcDbEntity
  8
0
  6
Continuous
 62
     7
370
    25
100
AcDbSpline
210
0.0
220
0.0
230
1.0
 70
     8
 71
     3
 72
    31
 73
    27
 74
     0
 42
0.000000001
 43
0.00000001
 40
0.0
 40
0.0
 40
0.0
 40
0.0
 40
0.0429150821010497
 40
0.0851299705846997
 40
0.1264733185549994
 40
0.1674530378853891
 40
0.2079763328949888
 40
0.2482493780637603
 40
0.2887499869834437
 40
0.3296698569108721
 40
0.3705372867119746
 40
0.4111285639171174
 40
0.4518189126736402
 40
0.4924058769342646
 40
0.5334858617420248
 40
0.5752630624415529
 40
0.6174406128021912
 40
0.6606716882923679
 40
0.7039402042434908
 40
0.746867522159874
 40
0.7890793003947214
 40
0.8311040424574071
 40
0.8732379898547795
 40
0.9151657696593319
 40
0.9573806581429862
 40
1.0
 40
1.0
 40
1.0
 40
1.0
 10
240.998504641299
 20
229.4400966037254
 30
0.0
 10
240.9981407745259
 20
229.470862811169
 30
0.0
 10
240.997418977755
 20
229.5318932509687
 30
0.0
 10
240.9878554472029
 20
229.6221184219108
 30
0.0
 10
240.9741567823673
 20
229.7103409780335
 30
0.0
 10
240.9544148972172
 20
229.7962145707513
 30
0.0
 10
240.9289694006142
 20
229.879761089919
 30
0.0
 10
240.8975937509043
 20
229.9609020681908
 30
0.0
 10
240.8605956578102
 20
230.0399397880163
 30
0.0
 10
240.8181339114068
 20
230.1166789002947
 30
0.0
 10
240.7704038429675
 20
230.1903159840405
 30
0.0
 10
240.7182483508212
 20
230.26071245826
 30
0.0
 10
240.6607669278646
 20
230.3265463021631
 30
0.0
 10
240.5996018910148
 20
230.3894427746168
 30
0.0
 10
240.5332254450377
 20
230.4480604316182
 30
0.0
 10
240.4619382639802
 20
230.5024187182146
 30
0.0
 10
240.386605784868
 20
230.5538294741768
 30
0.0
 10
240.3068432212967
 20
230.6002076624179
 30
0.0
 10
240.2245254918399
 20
230.6430377163792
 30
0.0
 10
240.1400578299648
 20
230.6797325549461
 30
0.0
 10
240.0543971467414
 20
230.7109129775332
 30
0.0
 10
239.9677612734116
 20
230.7375076529719
 30
0.0
 10
239.8794210002073
 20
230.7569277946026
 30
0.0
 10
239.7899732411819
 20
230.7707418112614
 30
0.0
 10
239.6995417494741
 20
230.7803560613218
 30
0.0
 10
239.638723971582
 20
230.7810893761367
 30
0.0
 10
239.6081701060426
 20
230.78145778161
 30
0.0
  0
SPLINE
  5
284
330
1F
100
AcDbEntity
  8
0
  6
Continuous
 62
     7
370
    25
100
AcDbSpline
210
0.0
220
0.0
230
1.0
 70
     8
 71
     3
 72
    31
 73
    27
 74
     0
 42
0.000000001
 43
0.00000001
 40
0.0
 40
0.0
 40
0.0
 40
0.0
 40
0.0436332182657562
 40
0.0865377766972009
 40
0.129177336089889
 40
0.1714363236638263
 40
0.2134158945709093
 40
0.2552659545538462
 40
0.2973694811566234
 40
0.3399407478985549
 40
0.3823474587518103
 40
0.4239529468152692
 40
0.4648711632610177
 40
0.5055722941182705
 40
0.5460025771083166
 40
0.5865679748069129
 40
0.6270647991481683
 40
0.6682706840331747
 40
0.7095492248503331
 40
0.7504281535131891
 40
0.7910961944485926
 40
0.8320271447794338
 40
0.8731359553359664
 40
0.9146107643654486
 40
0.9569559864804377
 40
1.0
 40
1.0
 40
1.0
 40
1.0
 10
239.6081701060426
 20
228.0949193200716
 30
0.0
 10
239.6395658682194
 20
228.0953506704609
 30
0.0
 10
239.7018330940734
 20
228.0962061678354
 30
0.0
 10
239.794448317922
 20
228.1048228246803
 30
0.0
 10
239.885395024278
 20
228.1186403062239
 30
0.0
 10
239.9745456495979
 20
228.1385345438119
 30
0.0
 10
240.0617990142128
 20
228.1634330810717
 30
0.0
 10
240.1475192998956
 20
228.1930129485774
 30
0.0
 10
240.2307934632569
 20
228.2299166119186
 30
0.0
 10
240.3126720304051
 20
228.2706908251367
 30
0.0
 10
240.3910457639393
 20
228.317172968042
 30
0.0
 10
240.4658628539459
 20
228.3671004323758
 30
0.0
 10
240.5352374928143
 20
228.4224076811625
 30
0.0
 10
240.600904721889
 20
228.4807531253989
 30
0.0
 10
240.6622526969037
 20
228.5433131873836
 30
0.0
 10
240.7188665611651
 20
228.6100065314876
 30
0.0
 10
240.7705556810442
 20
228.681254127692
 30
0.0
 10
240.8181495176109
 20
228.7558987457564
 30
0.0
 10
240.8606067631108
 20
228.8339096321208
 30
0.0
 10
240.8975992315339
 20
228.9142186971168
 30
0.0
 10
240.9289828508965
 20
228.9966281891852
 30
0.0
 10
240.954317994563
 20
229.0812569718861
 30
0.0
 10
240.9741712348042
 20
229.1679443132711
 30
0.0
 10
240.9878508764349
 20
229.2568062841746
 30
0.0
 10
240.9974198172077
 20
229.3476651162906
 30
0.0
 10
240.9981410657984
 20
229.4091184713417
 30
0.0
 10
240.998504641299
 20
229.4400966037254
 30
0.0
  0
SPLINE
  5
285
330
1F
100
AcDbEntity
  8
0
  6
Continuous
 62
     7
370
    25
100
AcDbSpline
210
0.0
220
0.0
230
1.0
 70
     8
 71
     3
 72
    23
 73
    19
 74
     0
 42
0.000000001
 43
0.00000001
 40
0.0
 40
0.0
 40
0.0
 40
0.0
 40
0.0725383714064952
 40
0.1400338305012489
 40
0.2024956806336234
 40
0.2605750556694166
 40
0.313228337846464
 40
0.3615831937532646
 40
0.4048783612951249
 40
0.4441274373055403
 40
0.5163996933371955
 40
0.5865066709977659
 40
0.6550853737960463
 40
0.7243837831470369
 40
0.7939735287256627
 40
0.8616376821817769
 40
0.930110942306404
 40
1.0
 40
1.0
 40
1.0
 40
1.0
 10
243.996691740658
 20
229.6347179979562
 30
0.0
 10
244.0238333876453
 20
229.63470397027
 30
0.0
 10
244.0762297775844
 20
229.6346768901109
 30
0.0
 10
244.1519183515173
 20
229.6382920571241
 30
0.0
 10
244.2221396335708
 20
229.6424653974697
 30
0.0
 10
244.2866779269453
 20
229.6485758423245
 30
0.0
 10
244.3455623246551
 20
229.6572129830423
 30
0.0
 10
244.3988910115626
 20
229.6659322024395
 30
0.0
 10
244.4462504753316
 20
229.6785463527967
 30
0.0
 10
244.5016761797906
 20
229.6955308512301
 30
0.0
 10
244.5634375021445
 20
229.7244982954368
 30
0.0
 10
244.6306273497334
 20
229.7665442671283
 30
0.0
 10
244.6875692387807
 20
229.820138909567
 30
0.0
 10
244.7368436937001
 20
229.8803984422703
 30
0.0
 10
244.7759468829727
 20
229.9474355096782
 30
0.0
 10
244.8045726760027
 20
230.0191623308511
 30
0.0
 10
244.8213921544682
 20
230.0948433086315
 30
0.0
 10
244.8236474872844
 20
230.1466304060215
 30
0.0
 10
244.824786692581
 20
230.1727889114177
 30
0.0
  0
LINE
  5
286
330
1F
100
AcDbEntity
  8
0
  6
Continuous
 62
     7
370
    25
100
AcDbLine
 10
243.4408106159
 20
229.6417141792
 30
0.0
 11
243.9966909837
 21
229.6347179676
 31
0.0
  0
LINE
  5
287
330
1F
100
AcDbEntity
  8
0
  6
Continuous
 62
     7
370
    25
100
AcDbLine
 10
243.4408106159
 20
230.7000476161
 30
0.0
 11
243.4408106159
 21
229.6417141792
 31
0.0
  0
LINE
  5
288
330
1F
100
AcDbEntity
  8
0
  6
Continuous
 62
     7
370
    25
100
AcDbLine
 10
244.0214976918
 20
230.7000476161
 30
0.0
 11
243.4408106159
 21
230.7000476161
 31
0.0
  0
SPLINE
  5
289
330
1F
100
AcDbEntity
  8
0
  6
Continuous
 62
     7
370
    25
100
AcDbSpline
210
0.0
220
0.0
230
1.0
 70
     8
 71
     3
 72
    23
 73
    19
 74
     0
 42
0.000000001
 43
0.00000001
 40
0.0
 40
0.0
 40
0.0
 40
0.0
 40
0.0700437554181554
 40
0.1392383167626457
 40
0.2081974550441379
 40
0.2791733744245661
 40
0.3499868116864759
 40
0.4183538456626526
 40
0.4876095837571481
 40
0.5574110731083896
 40
0.5953301567632413
 40
0.637964051565218
 40
0.6859127777112933
 40
0.7381851646524765
 40
0.7961026471849412
 40
0.8585165439469282
 40
0.92665772646852
 40
1.0
 40
1.0
 40
1.0
 40
1.0
 10
244.824786692581
 20
230.1727889114177
 30
0.0
 10
244.8236412918315
 20
230.1983145629035
 30
0.0
 10
244.8213643769027
 20
230.2490563988592
 30
0.0
 10
244.8044408438926
 20
230.3234228459837
 30
0.0
 10
244.776002537745
 20
230.3943938063917
 30
0.0
 10
244.7365811984351
 20
230.4605908195337
 30
0.0
 10
244.6887374591137
 20
230.5206335202736
 30
0.0
 10
244.6331301978658
 20
230.572791628395
 30
0.0
 10
244.5698903107988
 20
230.6147213158725
 30
0.0
 10
244.5110637012191
 20
230.6417843642252
 30
0.0
 10
244.4588111967513
 20
230.6583082212252
 30
0.0
 10
244.4134250617139
 20
230.6698696122114
 30
0.0
 10
244.3621799498584
 20
230.6791003407336
 30
0.0
 10
244.3050591784454
 20
230.6865747468416
 30
0.0
 10
244.2425054791396
 20
230.6929732438085
 30
0.0
 10
244.1739814363424
 20
230.6973148088708
 30
0.0
 10
244.0997466313811
 20
230.6998561298853
 30
0.0
 10
244.0482113278107
 20
230.6999821821539
 30
0.0
 10
244.0214964281579
 20
230.7000475251998
 30
0.0
  0
LINE
  5
28A
330
1F
100
AcDbEntity
  8
0
  6
Continuous
 62
     7
370
    25
100
AcDbLine
 10
247.0400370907
 20
230.4068432881
 30
0.0
 11
246.465075786
 21
229.1939578012
 31
0.0
  0
LINE
  5
28B
330
1F
100
AcDbEntity
  8
0
  6
Continuous
 62
     7
370
    25
100
AcDbLine
 10
247.5997321557
 20
229.1939578012
 30
0.0
 11
247.0400370907
 21
230.4068432881
 31
0.0
  0
LINE
  5
28C
330
1F
100
AcDbEntity
  8
0
  6
Continuous
 62
     7
370
    25
100
AcDbLine
 10
246.465075786
 20
229.1939578012
 30
0.0
 11
247.5997321557
 21
229.1939578012
 31
0.0
  0
INSERT
  5
298
330
1F
100
AcDbEntity
  8
0
  6
Continuous
 62
     7
370
     0
100
AcDbBlockReference
  2
SW_CENTERMARKSYMBOL_0
 10
343.0586224179
 20
175.5666885508
 30
0.0
  0
INSERT
  5
2A4
330
1F
100
AcDbEntity
  8
0
  6
Continuous
 62
     7
370
     0
100
AcDbBlockReference
  2
SW_CENTERMARKSYMBOL_1
 10
246.1540224179
 20
197.2146885508
 30
0.0
  0
INSERT
  5
2B0
330
1F
100
AcDbEntity
  8
0
  6
Continuous
 62
     7
370
     0
100
AcDbBlockReference
  2
SW_CENTERMARKSYMBOL_2
 10
364.5345224178
 20
252.3616885508
 30
0.0
  0
ENDSEC
  0
SECTION
  2
OBJECTS
  0
DICTIONARY
  5
C
330
0
100
AcDbDictionary
281
     1
  3
ACAD_GROUP
350
D
  3
ACAD_LAYOUT
350
1A
  3
ACAD_MLINESTYLE
350
17
  3
ACAD_PLOTSETTINGS
350
19
  3
ACAD_PLOTSTYLENAME
350
E
  3
ACAD_SCALELIST
350
47
  0
DICTIONARY
  5
D
102
{ACAD_REACTORS
330
C
102
}
330
C
100
AcDbDictionary
281
     1
  0
DICTIONARY
  5
1A
102
{ACAD_REACTORS
330
C
102
}
330
C
100
AcDbDictionary
281
     1
  3
Layout1
350
1E
  3
Layout2
350
26
  3
Model
350
22
  0
DICTIONARY
  5
17
102
{ACAD_REACTORS
330
C
102
}
330
C
100
AcDbDictionary
281
     1
  3
Standard
350
18
  0
DICTIONARY
  5
19
102
{ACAD_REACTORS
330
C
102
}
330
C
100
AcDbDictionary
281
     1
  0
ACDBDICTIONARYWDFLT
  5
E
102
{ACAD_REACTORS
330
C
102
}
330
C
100
AcDbDictionary
281
     1
  3
Normal
350
F
100
AcDbDictionaryWithDefault
340
F
  0
DICTIONARY
  5
47
102
{ACAD_REACTORS
330
C
102
}
330
C
100
AcDbDictionary
281
     1
  3
A0
350
48
  3
A1
350
49
  3
A2
350
4A
  3
A3
350
4B
  3
A4
350
4C
  3
A5
350
4D
  3
A6
350
4E
  3
A7
350
4F
  3
A8
350
50
  3
A9
350
51
  3
B0
350
52
  3
B1
350
53
  3
B2
350
54
  3
B3
350
55
  3
B4
350
56
  3
B5
350
57
  3
B6
350
58
  3
B7
350
59
  3
B8
350
5A
  3
B9
350
5B
  3
C0
350
5C
  3
C1
350
5D
  3
C2
350
5E
  3
C3
350
5F
  3
C4
350
60
  3
C5
350
61
  3
C6
350
62
  3
C7
350
63
  3
C8
350
64
  3
C9
350
65
  3
D0
350
66
  3
D1
350
67
  3
D2
350
68
  0
LAYOUT
  5
1E
102
{ACAD_REACTORS
330
1A
102
}
330
1A
100
AcDbPlotSettings
  1

  2
none_device
  4

  6

 40
0.0
 41
0.0
 42
0.0
 43
0.0
 44
0.0
 45
0.0
 46
0.0
 47
0.0
 48
0.0
 49
0.0
140
0.0
141
0.0
142
1.0
143
1.0
 70
   688
 72
     1
 73
     0
 74
     5
  7

 75
    16
147
1.0
148
0.0
149
0.0
100
AcDbLayout
  1
Layout1
 70
     1
 71
     1
 10
0.0
 20
0.0
 11
420.0
 21
297.0
 12
0.0
 22
0.0
 32
0.0
 14
1.0000000000E+20
 24
1.0000000000E+20
 34
1.0000000000E+20
 15
-1.0000000000E+20
 25
-1.0000000000E+20
 35
-1.0000000000E+20
146
0.0
 13
0.0
 23
0.0
 33
0.0
 16
1.0
 26
0.0
 36
0.0
 17
0.0
 27
1.0
 37
0.0
 76
     0
330
1B
  0
LAYOUT
  5
26
102
{ACAD_REACTORS
330
1A
102
}
330
1A
100
AcDbPlotSettings
  1

  2
none_device
  4

  6

 40
0.0
 41
0.0
 42
0.0
 43
0.0
 44
0.0
 45
0.0
 46
0.0
 47
0.0
 48
0.0
 49
0.0
140
0.0
141
0.0
142
1.0
143
1.0
 70
   688
 72
     1
 73
     0
 74
     5
  7

 75
    16
147
1.0
148
0.0
149
0.0
100
AcDbLayout
  1
Layout2
 70
     1
 71
     2
 10
0.0
 20
0.0
 11
0.0
 21
0.0
 12
0.0
 22
0.0
 32
0.0
 14
0.0
 24
0.0
 34
0.0
 15
0.0
 25
0.0
 35
0.0
146
0.0
 13
0.0
 23
0.0
 33
0.0
 16
1.0
 26
0.0
 36
0.0
 17
0.0
 27
1.0
 37
0.0
 76
     0
330
23
  0
LAYOUT
  5
22
102
{ACAD_REACTORS
330
1A
102
}
330
1A
100
AcDbPlotSettings
  1

  2
none_device
  4
Letter_(8.50_x_11.00_Inches)
  6

 40
6.35
 41
6.35
 42
6.35000508
 43
6.35000508
 44
215.9
 45
279.4
 46
0.0
 47
0.0
 48
0.0
 49
0.0
140
0.0
141
0.0
142
1.0
143
1.0
 70
  1712
 72
     1
 73
     0
 74
     0
  7

 75
     0
147
1.0
148
0.0
149
0.0
100
AcDbLayout
  1
Model
 70
     1
 71
     0
 10
0.0
 20
0.0
 11
594.0
 21
420.0
 12
0.0
 22
0.0
 32
0.0
 14
0.0
 24
0.0
 34
0.0
 15
594.0
 25
420.0
 35
0.0
146
0.0
 13
0.0
 23
0.0
 33
0.0
 16
1.0
 26
0.0
 36
0.0
 17
0.0
 27
1.0
 37
0.0
 76
     0
330
1F
331
29
  0
MLINESTYLE
  5
18
102
{ACAD_REACTORS
330
17
102
}
330
17
100
AcDbMlineStyle
  2
Standard
 70
     0
  3

 62
   256
 51
90.0
 52
90.0
 71
     2
 49
0.5
 62
   256
  6
BYLAYER
 49
-0.5
 62
   256
  6
BYLAYER
  0
ACDBPLACEHOLDER
  5
F
102
{ACAD_REACTORS
330
E
102
}
330
E
  0
SCALE
  5
48
102
{ACAD_REACTORS
330
47
102
}
330
47
100
AcDbScale
 70
     0
300
1:1
140
1.0
141
1.0
290
     1
  0
SCALE
  5
49
102
{ACAD_REACTORS
330
47
102
}
330
47
100
AcDbScale
 70
     0
300
1:2
140
1.0
141
2.0
290
     0
  0
SCALE
  5
4A
102
{ACAD_REACTORS
330
47
102
}
330
47
100
AcDbScale
 70
     0
300
1:4
140
1.0
141
4.0
290
     0
  0
SCALE
  5
4B
102
{ACAD_REACTORS
330
47
102
}
330
47
100
AcDbScale
 70
     0
300
1:5
140
1.0
141
5.0
290
     0
  0
SCALE
  5
4C
102
{ACAD_REACTORS
330
47
102
}
330
47
100
AcDbScale
 70
     0
300
1:8
140
1.0
141
8.0
290
     0
  0
SCALE
  5
4D
102
{ACAD_REACTORS
330
47
102
}
330
47
100
AcDbScale
 70
     0
300
1:10
140
1.0
141
10.0
290
     0
  0
SCALE
  5
4E
102
{ACAD_REACTORS
330
47
102
}
330
47
100
AcDbScale
 70
     0
300
1:16
140
1.0
141
16.0
290
     0
  0
SCALE
  5
4F
102
{ACAD_REACTORS
330
47
102
}
330
47
100
AcDbScale
 70
     0
300
1:20
140
1.0
141
20.0
290
     0
  0
SCALE
  5
50
102
{ACAD_REACTORS
330
47
102
}
330
47
100
AcDbScale
 70
     0
300
1:30
140
1.0
141
30.0
290
     0
  0
SCALE
  5
51
102
{ACAD_REACTORS
330
47
102
}
330
47
100
AcDbScale
 70
     0
300
1:40
140
1.0
141
40.0
290
     0
  0
SCALE
  5
52
102
{ACAD_REACTORS
330
47
102
}
330
47
100
AcDbScale
 70
     0
300
1:50
140
1.0
141
50.0
290
     0
  0
SCALE
  5
53
102
{ACAD_REACTORS
330
47
102
}
330
47
100
AcDbScale
 70
     0
300
1:100
140
1.0
141
100.0
290
     0
  0
SCALE
  5
54
102
{ACAD_REACTORS
330
47
102
}
330
47
100
AcDbScale
 70
     0
300
2:1
140
2.0
141
1.0
290
     0
  0
SCALE
  5
55
102
{ACAD_REACTORS
330
47
102
}
330
47
100
AcDbScale
 70
     0
300
4:1
140
4.0
141
1.0
290
     0
  0
SCALE
  5
56
102
{ACAD_REACTORS
330
47
102
}
330
47
100
AcDbScale
 70
     0
300
8:1
140
8.0
141
1.0
290
     0
  0
SCALE
  5
57
102
{ACAD_REACTORS
330
47
102
}
330
47
100
AcDbScale
 70
     0
300
10:1
140
10.0
141
1.0
290
     0
  0
SCALE
  5
58
102
{ACAD_REACTORS
330
47
102
}
330
47
100
AcDbScale
 70
     0
300
100:1
140
100.0
141
1.0
290
     0
  0
SCALE
  5
59
102
{ACAD_REACTORS
330
47
102
}
330
47
100
AcDbScale
 70
     0
300
1/128" = 1'-0"
140
0.0078125
141
12.0
290
     0
  0
SCALE
  5
5A
102
{ACAD_REACTORS
330
47
102
}
330
47
100
AcDbScale
 70
     0
300
1/64" = 1'-0"
140
0.015625
141
12.0
290
     0
  0
SCALE
  5
5B
102
{ACAD_REACTORS
330
47
102
}
330
47
100
AcDbScale
 70
     0
300
1/32" = 1'-0"
140
0.03125
141
12.0
290
     0
  0
SCALE
  5
5C
102
{ACAD_REACTORS
330
47
102
}
330
47
100
AcDbScale
 70
     0
300
1/16" = 1'-0"
140
0.0625
141
12.0
290
     0
  0
SCALE
  5
5D
102
{ACAD_REACTORS
330
47
102
}
330
47
100
AcDbScale
 70
     0
300
3/32" = 1'-0"
140
0.09375
141
12.0
290
     0
  0
SCALE
  5
5E
102
{ACAD_REACTORS
330
47
102
}
330
47
100
AcDbScale
 70
     0
300
1/8" = 1'-0"
140
0.125
141
12.0
290
     0
  0
SCALE
  5
5F
102
{ACAD_REACTORS
330
47
102
}
330
47
100
AcDbScale
 70
     0
300
3/16" = 1'-0"
140
0.1875
141
12.0
290
     0
  0
SCALE
  5
60
102
{ACAD_REACTORS
330
47
102
}
330
47
100
AcDbScale
 70
     0
300
1/4" = 1'-0"
140
0.25
141
12.0
290
     0
  0
SCALE
  5
61
102
{ACAD_REACTORS
330
47
102
}
330
47
100
AcDbScale
 70
     0
300
3/8" = 1'-0"
140
0.375
141
12.0
290
     0
  0
SCALE
  5
62
102
{ACAD_REACTORS
330
47
102
}
330
47
100
AcDbScale
 70
     0
300
1/2" = 1'-0"
140
0.5
141
12.0
290
     0
  0
SCALE
  5
63
102
{ACAD_REACTORS
330
47
102
}
330
47
100
AcDbScale
 70
     0
300
3/4" = 1'-0"
140
0.75
141
12.0
290
     0
  0
SCALE
  5
64
102
{ACAD_REACTORS
330
47
102
}
330
47
100
AcDbScale
 70
     0
300
1" = 1'-0"
140
1.0
141
12.0
290
     0
  0
SCALE
  5
65
102
{ACAD_REACTORS
330
47
102
}
330
47
100
AcDbScale
 70
     0
300
1-1/2" = 1'-0"
140
1.5
141
12.0
290
     0
  0
SCALE
  5
66
102
{ACAD_REACTORS
330
47
102
}
330
47
100
AcDbScale
 70
     0
300
3" = 1'-0"
140
3.0
141
12.0
290
     0
  0
SCALE
  5
67
102
{ACAD_REACTORS
330
47
102
}
330
47
100
AcDbScale
 70
     0
300
6" = 1'-0"
140
6.0
141
12.0
290
     0
  0
SCALE
  5
68
102
{ACAD_REACTORS
330
47
102
}
330
47
100
AcDbScale
 70
     0
300
1'-0" = 1'-0"
140
12.0
141
12.0
290
     0
  0
ENDSEC
  0
EOF
